PrimaNota.ru - самый крупный в мире бесплатный архив песенных текстов, аккордов, табулатур и нот


Melvins - Roman Bird Doghung Bunny - таба, видео

Регистрация Запомнить меня
Войти через:  Facebook Google Twitter Vk Yandex Mail.ru

Melvins - Roman Bird Doghung Bunny - таба, видео

Печатать
Просмотров: 104
Уроки эстрадного вокала в Санкт-Петербурге
Roman Bird Dog/Hung Bunny

updated by ben.nield@gmail.com, Feb 2006

tuning low to high: C#,F#,B,E,G#,C#.

~  vibrato
h  natural harmonic
b  bend
/  slide up
\  slide down
.  palm mute
r  let note ring

First get some feedback on this note:
|------|
|------|
|------|
|------|
|------|
|-12h--

And play this 4 times:

  1+a2+a3+a4+a+a+1+a2+a3+a4+a+a+1+a2+a3+a4+a+a+1+a2+a3+a4+a+a+1+a2+a3+a4+a+a
|---------------------------------------------------------------------------|
|---------------------------------------------------------------------------|
|---------------------------------------------------------------------------|
|-9--9--9-/9-----9--9--9-/9-----9--9--9-/9-----9--9--9-/9-----9b-9b-9b-9b---|
|-7--7--7-/7-----7--7--7-/7-----7--7--7-/7-----7--7--7-/7-----7b-7b-7b-7b---|
|-0--0--0-/0-----0--0--0-/0-----0--0--0-/0-----0--0--0-/0-----0--0--0--0----|
|        First time play this very loose - improvise rhythm a little.       |

  1+a2+a3+a4+a+a1+a2+a3+a4+a+a1+a2+a3+a4+a+a1+a2+a3+a4+a+
|--------------------------------------------------------|
|--------------------------------------------------------|
|-3-----3--3--3--3----3--3b----7-/9---9--9-\2------------|
|-3-----3--3--3--3----3--3b-2--7-/9---9--9-\2------------|
|-1-----1--1--1--1----1--1b-2--5-/7---7--7-\0------------|
|---------------------------0---------0--0---------------|

  1+a2+a3+a4+a1+a1+a2+a3+a4+a1+a1+a2+a3+a4+a1+a1+a2+a3+a4+a+
|-----------------------------------------------------------|
|-----------------------------------------------------------|
|----------------------3-----3--3--3--3----3--3--3b---/9----|
|-2--2--3--3--3--3b-2--3-----3--3--3--3----3--3--3b-2-/7----|
|-2--2--3--3--3--3b-2--1-----1--1--1--1----1--1--1b-2-/7----|
|-0--0--1--1--1--1b-0-------------------------------0--0----|

Then after you've played that 4 times, instead of playing the last
chord, go to the next section. This is where Dale starts pounding:
|-------------------------------------------------------------|
|-------------------------------------------------------------|
|-7---------7---------7---------7---------7---------7---------|
|-7----2----7----2----7----2----7----2----7----2----7----2----|
|-5----2----5----2----5----2----5----2----5----2----5----2----|
|------0---------0---------0---------0---------0---------0----|

The last chord above is where Dale does the cymbal roll. After this chord is
held for a short time, Buzz starts playing the main riff/verse of Hung Bunny,
which is as follows. Play it 8 times first time, 4 times second time.
Mute the -0-0-0-0--------------------------------------------------| part during vocals:
|------------------------------------------------------------------|
|------------------------------------------------------------------|
|-------------------------------------------------------3---3---3--|
|-2-2-2-2-2-2-2-2-2-2-2-3---3---3-2-2-2-2-2-2-2-2-2-2-2-3---3---3--|
|-2-2-2-2-2-2-2-2-2-2-2-3---3---3-2-2-2-2-2-2-2-2-2-2-2-1---1---1--|
|-0-0-0-0-0-0-0-0-0-0-0-1---1---1-0-0-0-0-0-0-0-0-0-0-0------------|

Chorus (skip the last chord above when going into this):
|------------------------------------------------------------------|
|------------------------------------------------------------------|
|------------------------------------------------------------------|
|-5-----5-----5-5---5-5-----------2-~------------------------------|
|-5-----5-----5-5---5-5---3-------2-~------------------------------|
|-3-----3-----3-3---3-3-3---3-1-3-1-~-------etc--------------------|

|------------------------------------------------------------------|
|------------------------------------------------------------------|
|---------------3---3-3---3---3-----------------3---------7----8-9-|
|-2---2-2-2-2-2-3---3-3-3-3-3-3-3-2-2-2-2-2-2-2-3---3-----7----8-9-|
|-2---2-2-2-2-2-1---1-1-3-1-3-1-----2-2-2-2-2-2-1---3-----5----6-7-|
|-0---0-0-0-0-0---------1---1-------0-0-0-0-0-0-----1--------------|
          .   .                         . . . .

                                              1 + 2 + 3 + 4 +
|---------------------------------------------------------------|
|---------------------------------------------------------------|
|-------------3---3-3---3---3-----------------3-----------------|
|-2-2-2-2-2-2-3---3-3-3-3-3-3-3-2-2-2-2-2-2-2-3-----------------|
|-2-2-2-2-2-2-1---1-1-3-1-3-1-----2-2-2-2-2-2-1-r---------------|
|-0-0-0-0-0-0---------1---1-------0-0-0-0-0-0-------------------|
        .   .                         . . . .

  1 + 2 + 3 + 4 + 1 + 2 + 3 + 4 +   1 + 2 + 3 + 4 + 1 + 2 + 3 + 4 +
|---------------------------------|-------------------------------------|
|---------------------------------|-------------------------------------|
|---------------------------------|-------------------------------------|
|-3-------------------------------|--------------------------------5b-\-|
|-3-------------------------------|--------------------------------5b-\-|
|-1-r-----------------------------|--------------------------------3b-\-|
|Just play up to hear second time>|

Once you've got this far return to the Verse and play it all again.

Proceed to the next bar:
|---------------------------------|---------------------------------|
|---------------------------------|---------------------------------|
|---------------------------------|---------------------------------|
|---------------------------------|---------------------------------|
|---------------------------------|-6-~~~~~~~-----------------------|
|-12h---12h---0-----0-0-0-0-0-1-0-|-----------0-3-0-3-0-3-0-3-0-3-0-|

Outro - Repeat this 5 times:
|-----------------------------------------------------|
|-----------------------------------------------------|
|-7------------------------------/10------------------|
|-7---------2---------3----------/10------------------|
|-5---------2---------3----------/8-------------------|
|-----------0---------1-------------------------------|

|--------------------------------------------------------|
|--------------------------------------------------------|
|-9-----------7~~--6~~--7---8---9------------------------|
|-9---8-9-8---7~~--6~~--7---8---9------------------------|
|-7---------7-5~~--4~~--5---6---7------------------------|
|--------------------------------------------------------|

|--------------------------------|
|--------------------------------|
|-8------------------------------|
|-8------------------------------|
|-6------------------------------|
|--------------------------------|

Let your amp build up feedback, and, voila!
Into Infinity!!
Добавлено: 22.05.2012
Другие материалы по этой песне:
  • Аккорды и текст

Страница создана 22.05.2012
http://primanota.ru/melvins/roman-bird-doghung-bunny-chords.htm
Привет, Гость.
Предлагаем пройти революционный курс по гитаре.
Подарок от PrimaNota.Ru, забирай!