PrimaNota.ru - самый крупный в мире бесплатный архив песенных текстов, аккордов, табулатур и нот


Melvins - Pearl Bomb - текст песни, таба, бас-таба, видео

Регистрация Запомнить меня
Войти через:  Facebook Google Twitter Vk Yandex Mail.ru

Melvins - Pearl Bomb - текст песни, таба, бас-таба, видео

Печатать
Просмотров: 125



Date: Tue, 30 Aug 2005 00:36:14 +0100
From: Benjamin Nield 
Subject: m/melvins/pearl_bomb.tab 


Melvins - Pearl Bomb
(bass)


part 1, main riff:
E|---------------------------------
B|---------------------------------
G|---------------------------------
A|---------------------------------
E|-0-0-0-0-0-7-0-6~----------------

E|-----------------------------------------------------------|
B|-----------------------------------------------------------|
G|-----------------------------------------------------------|
A------------------------------------------------------------|
E|-0-2-0-5-0-0-0-0-0-2-0-3-0-0-0-0-0-2-3-2-3-1-2-1-2-1-2-1-2-|


part 2
E|----------------------------------------------|
B|----------------------------------------------|
G|----------------------------------------------|
A|------------------------------------7---------|
E|-0-1-0-1-2-1-0-3-2-1-7-7-6---0-6-0---7-7-6-6-|


part 3
E|-------------------------------------|
B|-------------------------------------|
G|-------------------------------------|
A|-------------------------------7-6---|
E|-0-0-0-0-0-0-0-0-0-0-0-0-0-0-0-----0-|

Outro
E|--------------------------------------|
B|--------------------------------------|
G|--------------------------------------|
A|-7-6---7-6---7-6---7-6---7-6--6---6-6-|
E|--------------------------------------|


Добавлено: 05.08.2013
Другие материалы по этой песне:
  • Аккорды и текст

Страница создана 27.05.2012
http://primanota.ru/melvins/pearl-bomb-chords.htm
Привет, Гость.
Предлагаем пройти революционный курс по гитаре.
Подарок от PrimaNota.Ru, забирай!