PrimaNota.ru - самый крупный в мире бесплатный архив песенных текстов, аккордов, табулатур и нот


Melvins - Eye Flys - текст песни, таба, бас-таба, видео

Регистрация Запомнить меня
Войти через:  Facebook Google Twitter Vk Yandex Mail.ru

Melvins - Eye Flys - текст песни, таба, бас-таба, видео

Печатать
Просмотров: 209
Уроки эстрадного вокала в Санкт-Петербурге
Авторы музыки: Buzz Osborne
Авторы текста: Buzz Osborne
Eye Flys
Melvins

updated by ben.nield@gmail.com, Jan 2006

/ = slide up  \ = slide down
^ = bend
r = let it ring
. = palm mute


Get some feedback on or around this note for three minutes:
e|---------------------------------------------------------|
b|---------------------------------------------------------|
g|---------------------------------------------------------|
d|---------------------------------------------------------|
a|---------------------------------------------------------|
e|-14------------------------------------------------------|

e|---------------------------------------------------------|
b|---------------------------------------------------------|
g|---------------------------------------------------------|
d|-/16--15--16--17--16--14--15----------16----------/14~~~-|
a|-/16--15--16--17--16--14--15\---------16----------/14~~~-|
e|-/14--13--14--15--14--12--13\---0/----14~~~etc----/12~~~-|etc

Get some feedback on or around and play about with this chord:
e|------------------|
b|------------------|
g|------------------|
d|-4^-----x---------|
a|-4------x---------|
e|-2------x----etc--|

then (palm-mute lightly):
e|-------------------------------------|
b|-------------------------------------|
g|-------------------------------------|
d|-------------------------------------|
a|-------------------------------------|
e|-0---2---0---2---3---2---0---1^--0---|
   .   .   .   .   .   .   .   .   .

verse
e|-----------------------------------------------------|
b|-----------------------------------------------------|
g|-----------------------------------------------------|
d|-4---4--/9--\5---4---10--9--\4---5---2---3---2---3---|
a|-4---4--/9--\5---4---10--9--\4---5---2---3---2---3---|
e|-2---2--/7--\3---2---8---7--\2---3---0---1---0---1---|

e|-----------------------------------------------------|
b|-----------------------------------------------------|
g|-----------------------------------------------------|
d|-4---4---4---4-------------------12^-12^-12^-12^-12^-|
a|-4---4---4---4--/12^-12^-12^-12^-12^-12^-12^-12^-12^-|
e|-2---2---2---2---------------------------------------|

e|-----------------------------------------|
b|-----------------------------------------|
g|-----------------------------------------|
d|-4---4--/9--\5---4---10--9--\4---5---2---|
a|-4---4--/9--\5---4---10--9--\4---5---2---|
e|-2---2--/7--\3---2---8---7--\2---3---0---| play this four times

e|-------------|
b|-------------|
g|-------------|
d|-3---2---3---|
a|-3---2---3---|
e|-1---0---1---|

e|-----------------------------------------------------|
b|-----------------------------------------------------|
g|-----------------------------------------------------|
d|-4---4---4---4-------------------12^-12^-12^-12^-12^-|
a|-4---4---4---4--/12^-12^-12^-12^-12^-12^-12^-12^-12^-|
e|-2---2---2---2---------------------------------------|

e|-------------------------|
b|-------------------------|
g|-------------------------|
d|-4---2---2---2---2---2---|
a|-4---2---2---2---2---2---|
e|-2---0---1---1---1---1---| play this three times

e|---------------|
b|---------------|
g|---------------|
d|-2---2-r-------|
a|-2---2-r-------|
e|-1---1-r-------|

fin.
Добавлено: 30.03.2012
Другие материалы по этой песне:
  • Аккорды и текст

Страница создана 30.03.2012
http://primanota.ru/melvins/eye-flys-chords.htm
Привет, Гость.
Предлагаем пройти революционный курс по гитаре.
Подарок от PrimaNota.Ru, забирай!