PrimaNota.ru - самый крупный в мире бесплатный архив песенных текстов, аккордов, табулатур и нот


Melvins - Ggiibbyy - текст песни, таба, видео

Регистрация Запомнить меня
Войти через:  Facebook Google Twitter Vk Yandex Mail.ru

Melvins - Ggiibbyy - текст песни, таба, видео

Печатать
Просмотров: 113
updated 26 April 09

  Intro:
 E|----------------------------|
 B|----------------------------|
 G|----------------------------|
 D|----------------------------|
 A|----------------------------|
 E|-14~14~14~14~14~14~14~14~14-| 9x

 E|-----------------|
 B|-----------------|
 G|-----------------|
 D|-----------------|
 A|--------x-x-p0---|
 E|-14b14~bx-x-p0---|

  Riff 1- play 6x:
 E|-----------------|-----------------|
 B|-----------------|-----------------|
 G|-2--2-p0h2-2-----|-------4---------|
 D|-2--2-p0h2-2-----|-5-----4---------|
 A|-0--0--0-0-0-----|-5-----2---------|
 E|-----------------|-3---------------|

  Riff 2:
 E|-----------------|-----------------|-----------------|-----------------|
 B|-----------------|-----------------|-----------------|-----------------|
 G|-5---------------|-4---------------|-5---------------|-7---------------|
 D|-5---------------|-4---------------|-5---------------|-7---------------|
 A|-3---------------|-2---------------|-3---------------|-5---------------|
 E|-----------------|-----------------|-----------------|-----------------|

Repeat Riffs 1 and 2.

   Then:
 E|-----------------|-----------------|
 B|-----------------|-----------------|
 G|-2---------------|-----------------|
 D|-2---------------|-----------------|
 A|-0-Ring..--------|-----------------|
 E|-----------------|-----------------|

   Then:
 E
 B|-----------------|-----------------|
 G|-----------------|-----------------|
 D|-7---7-7-7-7-7-7-|-7-7-7-7-7-7-7-7-|
 A|-7---7-7-7-7-7-7-|-7-7-7-7-7-7-7-7-|
 E|-5---5-5-5-5-5-5-|-5-5-5-5-5-5-5-5-|  X8
        x x x x x x   x x x x x x x x

  "Ending":
 E|-----------------|--------------------|
 B|-----------------|--------------------|
 G|--------7-/-9----|--------5-/-7-------|
 D|-7------7-/-9----|-5------5-/-7-------|CUT!]
 A|-7------5-/-7----|-5------3-/-5-------|
 E|-5---------------|-3------------------|
Добавлено: 25.03.2012
Другие материалы по этой песне:
  • Аккорды и текст

Страница создана 25.03.2012
http://primanota.ru/melvins/ggiibbyy-chords.htm
Привет, Гость.
Предлагаем пройти революционный курс по гитаре.
Подарок от PrimaNota.Ru, забирай!