PrimaNota.ru - самый крупный в мире бесплатный архив песенных текстов, аккордов, табулатур и нот


Mazzy Star - Unreflected - аккорды и текст, таба, видео

Регистрация Запомнить меня
Войти через:  Facebook Google Twitter Vk Yandex Mail.ru

Mazzy Star - Unreflected - аккорды и текст, таба, видео

Печатать
Просмотров: 147
Unreflected
Mazzy Star
		   Unreflected
(Sandoval/Roback)
from the album "G Tonight That I Might See"
tabbed by Brian Mojica  BMojica@juno.com>
lyrics courtesy of Kevin Jenkins

h = hammer on
p = pull off
/ = slide up
\ = slide down
~ = vibrato
^ = bend (half-, full-, two-steps etc. specified)
rb=release bend

(sorry if this one^Òs confusing)
Intro:
|-----------------|-----------------|-----------------|-----------------|
|-3---3-3---3-3-3-|-3---3-3---3-3-3-|-3---3-3---3-3-3-|-3---3-3---3-3-3-|
|-2---2-2---2-2-2-|-2---2-2---2-2-2-|-2---2-2---2-2-2-|-2---2-2---2-2-2-|
|-0---0-0---0-0-0-|-0---0-0---0-0-0-|-0---0-0---0-0-0-|-0---0-0---0-0-0-|
|-----------------|-----------------|-----------------|-----------------|
|-----------------|-----------------|-----------------|-----------------|

|-----------------|-----------------|-----------------|-----------------|
|-3---3-3---3-3-3-|-3---3-3---3-3-3-|-3---3-3---3-3-3-|-3---3-3---3-3-3-|
|-2---2-2---2-2-2-|-2---2-2---2-2-2-|-2---2-2---2-2-2-|-2---2-2---2-2-2-|
|-0---0-0---0-0-0-|-0---0-0---2-2-2-|-2h4-4-4---4-4-2-|-2h4-4-4---4-4-4-|
|-----------------|-----------------|-----------------|-----------------|
|-----------------|-----------------|-----------------|-----------------|

|-----------------|-----------------|-----------------|-----------------|
|-3---3-3---3-3-3-|-3---3-3---3-3-3-|-3---3-3---3-3-3-|-3---3-3---3-3-3-|
|-2---2-2---2-2-2-|-2---2-2---2-2-2-|-2---2-2---2-2-2-|-2---2-2---2-2-2-|
|-4---4-4---4-4-4-|-4---4-4---2-2-2-|-2p0-0-0---2-2-2-|-2p0-0-0---0-0-0-|
|-----------------|-----------------|-----------------|-----------------|
|-----------------|-----------------|-----------------|-----------------|

|-----------------|-----------------|-----------------|-----------------|
|-3---3-3---3-3-3-|-3---3-3---3-3-3-|-3---3-3---3-3-3-|-3---3-3---3-3-3-|
|-2---2-2---2-2-2-|-2---2-2---2-2-2-|-2---2-2---2-2-2-|-2---2-2---2-2-2-|
|-0---0-0---0-0-0-|-0---0-0---2-2-2-|-2h4-4-4---4-4-2-|-2h4-4-4---4-4-4-|
|-----------------|-----------------|-----------------|-----------------|
|-----------------|-----------------|-----------------|-----------------|

|-----------------|-----------------|-----------------|-----------------|
|-3---3-3---3-3-3-|-3---3-3---3-3-3-|-3---3-3---3-3-3-|-3---3-3---3-3-3-|
|-2---2-2---2-2-2-|-2---2-2---2-2-2-|-2---2-2---2-2-2-|-2---2-2---2-2-2-|
|-4---4-4---4-4-4-|-4---4-4---2-2-2-|-2p0-0-0---2-2-2-|-2p0-0-0---0-0-0-|
|-----------------|-----------------|-----------------|-----------------|
|-----------------|-----------------|-----------------|-----------------|

|-----------------|-----------------|-----------------|-----------------|
|-3---3-3---3-3-3-|-3---3-3---3-3-3-|-3---3-3---3-3-3-|-3---3-3---3-3-3-|
|-2---2-2---2-2-2-|-2---2-2---2-2-2-|-2---2-2---2-2-2-|-2---2-2---2-2-2-|
|-0---0-0---0-0-0-|-0---0-0---0-0-0-|-0---0-0---0-0-0-|-0---0-0---0-0-0-|
|-3---3-3---3-3-3-|-2---2-2---2-2-2-|-----------------|-----------------|
|-----------------|-----------------|-----------------|-----------------|

|-----------------|-----------------|-----------------|
|-3---3-3---3-3-3-|-3---3-3---3-3-3-|-3---------------|
|-2---2-2---2-2-2-|-2---2-2---2-2-2-|-2---------------|END INTRO
|-0---0-0---0-0-0-|-0---0-0---0-0-0-|-0---------------|
|-3---3-3---3-3-3-|-2---2-2---2-2-2-|-----------------|
|-----------------|-----------------|-----------------|


Verses:
|(verse 1 section starts here)
|-----------------|-----------------|-----------------|-----------------|
|-3---3-3---3-3-3-|-3---3-3---3-3-3-|-3---3-3---3-3-3-|-3---3-3---3-3-3-|
|-2---2-2---2-2-2-|-2---2-2---2-2-2-|-2---2-2---2-2-2-|-2---2-2---2-2-2-|
|-0---0-0---0-0-0-|-0---0-0---2-2-2-|-2h4-4-4---2-2-2-|-2h4-4-4---4-4-4-|
|-----------------|-----------------|-----------------|-----------------|
|-----------------|-----------------|-----------------|-----------------|

|-----------------|-----------------|-----------------|-----------------|
|-3---3-3---3-3-3-|-3---3-3---3-3-3-|-3---3-3---3-3-3-|-3---3-3---3-3-3-|
|-2---2-2---2-2-2-|-2---2-2---2-2-2-|-2---2-2---2-2-2-|-2---2-2---2-2-2-|
|-4---4-4---4-4-4-|-4---4-4---2-2-2-|-2p0-0-0---2-2-2-|-2p0-0-0---0-0-0-|
|-----------------|-----------------|-----------------|-----------------|
|-----------------|-----------------|-----------------|-----------------|
                                           1.  Once it^Òs life^Òs......
|(verse 2 section starts here)             2.  Follow anybody........
|-----------------|-----------------|-----------------|-----------------|
|-3---3-3---3-3-3-|-3---3-3---3-3-3-|-3---3-3---3-3-3-|-3---3-3---3-3-3-|
|-2---2-2---2-2-2-|-2---2-2---2-2-2-|-2---2-2---2-2-2-|-2---2-2---2-2-2-|
|-0---0-0---0-0-0-|-0---0-0---2-2-2-|-2h4-4-4---2-2-2-|-2h4-4-4---4-4-4-|
|-----------------|-----------------|-----------------|-----------------|
|-----------------|-----------------|-----------------|-----------------|

|-----------------|-----------------|-----------------|-----------------|
|-3---3-3---3-3-3-|-3---3-3---3-3-3-|-3---3-3---3-3-3-|-3---3-3---3-3-3-|
|-2---2-2---2-2-2-|-2---2-2---2-2-2-|-2---2-2---2-2-2-|-2---2-2---2-2-2-|
|-4---4-4---4-4-4-|-4---4-4---2-2-2-|-2p0-0-0---2-2-2-|-2p0-0-0---0-0-0-|
|-----------------|-----------------|-----------------|-----------------|
|-----------------|-----------------|-----------------|-----------------|

|-----------------|-----------------|-----------------|-----------------|
|-3---3-3---3-3-3-|-3---3-3---3-3-3-|-3---3-3---3-3-3-|-3---3-3---3-3-3-|
|-2---2-2---2-2-2-|-2---2-2---2-2-2-|-2---2-2---2-2-2-|-2---2-2---2-2-2-|
|-0---0-0---0-0-0-|-0---0-0---2-2-2-|-2h4-4-4---2-2-2-|-2h4-4-4---4-4-4-|
|-----------------|-----------------|-----------------|-----------------|
|-----------------|-----------------|-----------------|-----------------|

|1.
|-----------------|-----------------|-----------------|-----------------|
|-3---3-3---3-3-3-|-3---3-3---3-3-3-|-3---3-3---3-3-3-|-3---3-3---3-3-3-|
|-2---2-2---2-2-2-|-2---2-2---2-2-2-|-2---2-2---2-2-2-|-2---2-2---2-2-2-|
|-4---4-4---4-4-4-|-4---4-4---2-2-2-|-2p0-0-0---2-2-2-|-2p0-0-0---0-0-0-|
|-----------------|-----------------|-----------------|-----------------|
|-----------------|-----------------|-----------------|-----------------|

|-----------------|-----------------|-----------------|-----------------|
|-3---3-3---3-3-3-|-3---3-3---3-3-3-|-3---3-3---3-3-3-|-3---3-3---3-3-3-|
|-2---2-2---2-2-2-|-2---2-2---2-2-2-|-2---2-2---2-2-2-|-2---2-2---2-2-2-|
|-0---0-0---0-0-0-|-0---0-0---2-2-2-|-2h4-4-4---2-2-2-|-2h4-4-4---4-4-4-|
|-----------------|-----------------|-----------------|-----------------|
|-----------------|-----------------|-----------------|-----------------|

|-----------------|-----------------|-----------------|-----------------|
|-3---3-3---3-3-3-|-3---3-3---3-3-3-|-3---3-3---3-3-3-|-3---3-3---3-3-3-|
|-2---2-2---2-2-2-|-2---2-2---2-2-2-|-2---2-2---2-2-2-|-2---2-2---2-2-2-|
|-4---4-4---4-4-4-|-4---4-4---2-2-2-|-2p0-0-0---2-2-2-|-2p0-0-0---0-0-0-|
|-----------------|-----------------|-----------------|-----------------|
|-----------------|-----------------|-----------------|-----------------|

|-----------------|-----------------|-----------------|-----------------|
|-3---3-3---3-3-3-|-3---3-3---3-3-3-|-3---3-3---3-3-3-|-3---3-3---3-3-3-|
|-2---2-2---2-2-2-|-2---2-2---2-2-2-|-2---2-2---2-2-2-|-2---2-2---2-2-2-|
|-0---0-0---0-0-0-|-0---0-0---0-0-0-|-0---0-0---0-0-0-|-0---0-0---0-0-0-|
|-3---3-3---3-3-3-|-2---2-2---2-2-2-|-----------------|-----------------|
|-----------------|-----------------|-----------------|-----------------|

|-----------------|-----------------|-----------------|
|-3---3-3---3-3-3-|-3---3-3---3-3-3-|-3---------------|
|-2---2-2---2-2-2-|-2---2-2---2-2-2-|-2---------------|
|-0---0-0---0-0-0-|-0---0-0---0-0-0-|-0---------------|
|-3---3-3---3-3-3-|-2---2-2---2-2-2-|-----------------|
|-----------------|-----------------|-----------------|

|2.
|-----------------|-----------------|-----------------|-----------------|
|-3---3-3---3-3-3-|-3---3-3---3-3-3-|-3---3-3---3-3-3-|-3---3-3---3-3-3-|
|-2---2-2---2-2-2-|-2---2-2---2-2-2-|-2---2-2---2-2-2-|-2---2-2---2-2-2-|
|-4---4-4---4-4-4-|-4---4-4---2-2-2-|-2p0-0-0---2-2-2-|-2p0-0-0---0-0-0-|
|-----------------|-----------------|-----------------|-----------------|
|-----------------|-----------------|-----------------|-----------------|

|-----------------|-----------------|-----------------|-----------------|
|-3---3-3---3-3-3-|-3---3-3---3-3-3-|-3---3-3---3-3-3-|-3---3-3---3-3-3-|
|-2---2-2---2-2-2-|-2---2-2---2-2-2-|-2---2-2---2-2-2-|-2---2-2---2-2-2-|
|-0---0-0---0-0-0-|-0---0-0---0-0-0-|-0---0-0---0-0-0-|-0---0-0---0-0-0-|
|-3---3-3---3-3-3-|-2---2-2---2-2-2-|-----------------|-----------------|
|-----------------|-----------------|-----------------|-----------------|

|-----------------|-----------------|-----------------|
|-3---3-3---3-3-3-|-3---3-3---3-3-3-|-3---------------|
|-2---2-2---2-2-2-|-2---2-2---2-2-2-|-2---------------|
|-0---0-0---0-0-0-|-0---0-0---0-0-0-|-0---------------|
|-3---3-3---3-3-3-|-2---2-2---2-2-2-|-----------------|
|-----------------|-----------------|-----------------|

Once it's life's fortunate
Isn't this so
The unreflected feeling
Of a shortened flattened soul
The life that cuts the cold
Now is in your past
In our memories
We don't have much to say
We don't have much to say
We don't have much

Follow anybody
Is that what you do
Maybe it transfits to
Don something else to do
Now we know what we'll be in the past
Another story
Another life that's left
Another life that's left     
Добавлено: 31.08.2013
Другие материалы по этой песне:
  • Аккорды и текст

Страница создана 05.03.2012
http://primanota.ru/mazzy-star/unreflected-chords.htm
Привет, Гость.
Предлагаем пройти революционный курс по гитаре.
Подарок от PrimaNota.Ru, забирай!