PrimaNota.ru - самый крупный в мире бесплатный архив песенных текстов, аккордов, табулатур и нот


Maximum The Hormone - Yoshu Fukushu - таба, видео

Регистрация Запомнить меня
Войти через:  Facebook Google Twitter Vk Yandex Mail.ru

Maximum The Hormone - Yoshu Fukushu - таба, видео

Печатать
Просмотров: 383
-----------------------------------------------------------------------------
                             Yoshu Fukushu - Maximum the Hormone
-----------------------------------------------------------------------------
Tabbed by:Lelo91
E-mail:s.e.ven@hotmail.de


Tuning:Drop D

I tabbed this by hearing, btw this is my first tab ;)
Intro:
GuitarI(11x)                     GuitarII(9x)
e|3---------------|              e|----------------|
B|--3-5*--3-1-3-5*|              B|----------------|
G|----------------|              G|----------------|
D|----------------|              D|5---------------|
A|----------------|              A|--5-7*--5-3-5-7*|
D|----------------|              D|----------------|

GuitarI(1x)                     GuitarII(1x)
e|3---------------|              e|----------------|
B|--3-5*--3*------|              B|----------------|
G|----------------|              G|----------------|
D|----------------|              D|5---------------|
A|----------------|              A|--5-7*--5*------|
D|----------------|              D|----------------|

Verse:
e|----------------------------||
B|----------------------------||
G|----5~-------4~-----3~------||4x
D|[0]-x--[00]--x--[0]-x--0136-||
A|[0]-3~-[00]--2~-[0]-1~-0136-||
D|[0]----[00]-----[0]----0136-||

e|----------------------------||
B|----------------------------||
G|----5~-------4~-----3~------||1x
D|----x--[00]--x--[0]-x--0136-||
A|----3~-[00]--2~-[0]-1~-0136-||
D|-------[00]-----[0]----0136-||

e|----------------------------||
B|----------------------------||
G|----5~-------4~-----3~------||1x
D|[0]-x--[00]--x--[0]-x--0136-||
A|[0]-3~-[00]--2~-[0]-1~-0136-||
D|[0]----[00]-----[0]----0136-||

[Silence Only E-BASS and Hi-hat! Then start feedback and continue with ...]

Verse:
e|----------------------------||
B|----------------------------||
G|----5~-------4~-----3~------||3x
D|[0]-x--[00]--x--[0]-x--0136-||
A|[0]-3~-[00]--2~-[0]-1~-0136-||
D|[0]----[00]-----[0]----0136-||

e|--------------------||    e|--------------------||
B|--------------------||    B|--------------------||
G|---5---4---3--------||4x  G|--5---4---3---------||8x
D|[0]x[0]x[0]x0h1h3/6-||    D|0-x-0-x-0-x-0h1h3/6-||
A|[0]3[0]2[0]10h1h3/6-||    A|0-3-0-2-0-1-0h1h3/6-||
D|[0]-[0]-[0]-0h1h3/6-||    D|0---0---0---0h1h3/6-||

( not so shure about this part ) its "10" "11" "13" and "8"
e|--------------------------------------------------------------|
B|--------------------------------------------------------------|
G|--------------------------------------------------------------|2x
D|--------------------------------------------------------------|
A|--------------------------------------------------------------|
D|10101011-10101013-10101011-10101013-10101011-10101013-88888888|

e|--------------------------------------------------------------|
B|--------------------------------------------------------------|
G|--------------------------------------------------------------|4x
D|10101011-10101013-10101011-10101013-10101011-10101013-88888888|
A|10101011-10101013-10101011-10101013-10101011-10101013-88888888|
D|10101011-10101013-10101011-10101013-10101011-10101013-88888888|


e|------------------------------|
B|------------------------------|
G|----5~----5~----5~---3~--3333-|4x
D|-0--x--0--x--0--x--0---0------|
A|-0--3~-0--3~-0--3~-0-1~0-1111-|
D|-0-----0-----0-----0---0------|

e|-------------|   e|-------------|   e|-------------|   e|-------------|
B|-------------|   B|-------------|   B|-------------|   B|-------------|
G|-------------|4x G|-------------|4x G|-------------|4x G|-------------|2x
D|-----10----10|   D|-----13----13|   D|-----15----15|   D|-----11----11|
A|---10----10--|   A|---13----13--|   A|---15----15--|   A|---11----11--|
D|-10----10----|   D|-13----13----|   D|-15----15----|   D|-11----11----|

e|-------------|
B|-------------|
G|-------------|2x
D|---8--8------|
A|--8--8-------|
D|-8--8--------|
                                                                2x
e|-------------|   e|-------------|   e|-------------|   e|-------------|-|
B|-------------|   B|-------------|   B|-------------|   B|-------------|-|
G|-------------|4x G|-------------|4x G|-------------|4x G|-------------|-|
D|-----10----10|   D|-----13----13|   D|-----15----15|   D|-----11----11|8|
A|---10----10--|   A|---13----13--|   A|---15----15--|   A|---11----11--|8|
D|-10----10----|   D|-13----13----|   D|-15----15----|   D|-11----11----|8|

e|---------------------------------|  e|---------------------------------|
B|---------------------------------|  B|---------------------------------|
G|----555~---555~---555~--3~--3333-|  G|----555~---555~---555~--5~--5~---|
D|-000xxx-000xxx-000xxx-0---0------|  D|-000xxx-000xxx-000xxx-0---0------|
A|-000333~000333~000333~0-1~0-1111-|  A|-000333~000333~000333~0-3~0-3~---|
D|-000----000----000----0---0------|  D|-000----000----000----0---0------|

e|---------------------------------|  e|---------------------------------|
B|---------------------------------|  B|---------------------------------|
G|---5~------5~------5~---3~--3333~|  G|---5~------5~------5~---5~--5~---|
D|-0-x-[000]-x-[000]-x--0---0------|  D|-0-x-[000]-x-[000]-x--0---0------|
A|-0-3~[000]-3~[000]-3~-0-1~0-1111~|  A|-0-3~[000]-3~[000]-3~-0-3~0-3~---|
D|-0---[000]---[000]----0---0------|  D|-0---[000]---[000]----0---0------|

e|-------------|   e|-------------|   e|-------------|   e|-------------|
B|-------------|   B|-------------|   B|-------------|   B|-------------|
G|-------------|4x G|-------------|4x G|-------------|4x G|-------------|2x
D|-----10----10|   D|-----13----13|   D|-----15----15|   D|-----11----11|
A|---10----10--|   A|---13----13--|   A|---15----15--|   A|---11----11--|
D|-10----10----|   D|-13----13----|   D|-15----15----|   D|-11----11----|

e|-------------|
B|-------------|
G|-------------|2x
D|---8--8------|
A|--8--8-------|
D|-8--8--------|
                                                                2x
e|-------------|   e|-------------|   e|-------------|   e|-------------|-|
B|-------------|   B|-------------|   B|-------------|   B|-------------|-|
G|-------------|4x G|-------------|4x G|-------------|4x G|-------------|-|
D|-----10----10|   D|-----13----13|   D|-----15----15|   D|-----11----11|8|
A|---10----10--|   A|---13----13--|   A|---15----15--|   A|---11----11--|8|
D|-10----10----|   D|-13----13----|   D|-15----15----|   D|-11----11----|8|

e|---------------------------------------------|
B|---------------------------------------------|
G|---------------------------------------------|
D|-10-------13-------15-------11-------8-------|
A|-10-(24x)-13-(24x)-15-(24x)-11-(12x)-8-(12x)-|
D|-10-------13-------15-------11-------8-------|

e|-----------------------------------------------|
B|-----------------------------------------------|
G|-----------------------------------------------|
D|-10-------13-------15-------11-------8---------|
A|-10-(24x)-13-(24x)-15-(24x)-11-(12x)-8---------|
D|-10-------13-------15-------11-------8---------|

e|------------|--|
B|------------|--|
G|------------|--|
D|-----10-----|6*|
A|---10--(44x)|6*|
D|-10---------|6*|

I hope its useful!!!
My mind is open for fair critique and comments :D

Legend:----------------------------------------------------------------------
| *   let it ring
|[ ]  palm mute
| /   slide up
| \   slide down
| h   hammer-on
| p   pull-off
| ~   vibrato
| +   harmonic
| x   Mute note
| b   Bend
| pb  Pre-bend
| br  Bend release
| pbr Pre-bend release
| brb Bend release bend
Добавлено: 08.09.2013
Другие материалы по этой песне:

Страница создана 08.09.2013
http://primanota.ru/maximum-the-hormone/yoshu-fukushu-chords.htm
Привет, Гость.
Предлагаем пройти революционный курс по гитаре.
Подарок от PrimaNota.Ru, забирай!