PrimaNota.ru - самый крупный в мире бесплатный архив песенных текстов, аккордов, табулатур и нот


Maximum The Hormone - Porisumanfakku - таба, видео

Регистрация Запомнить меня
Войти через:  Facebook Google Twitter Vk Yandex Mail.ru

Maximum The Hormone - Porisumanfakku - таба, видео

Печатать
Просмотров: 82
Incredibly underrated song by Maximum
The Hormone, in standard tuning

Intro

e|-6-----------3-----/8-8-------------------------------------------------------------|
B|---4-----4-6---4--------6-4---------------------------------------------------------|
G|------3h5-----------------6---------------------------------------------------------|
D|------------------------------------------------------------------------------------|
A|------------------------------------------------------------------------------------|
E|------------------------------------------------------------------------------------|


e|----------------------------------------------------------|
B|----------------------------------------------------------|
G|----------------------------------------------------------|
D|-8----------------------8---------------------------------|
A|-6--8-8--6-6------------6--8-8--6-6--------------------6--|
E|----6-6--4-4--6-8---8-6----6-6--4-4-----------------------|

e|-------------------------------------------------------------------------------|
B|-------------------------------------------------------------------------------|
G|-------------------------------------------------------------------------------|
D|-5-555-5-555-5-555-5-----------------------------------------------------------|
A|-3-333-3-333-3-333-3-5-4-3-333-3-333-3-333-3-----------------------------------|
E|---------------------3-2-1-111-1-111-1-111-1-----------------------------------| x2


End with
e|---------------------------------------------------------------------------|
B|---------------------------------------------------------------------------|
G|---------------------------------------------------------------------------|
D|-8-888-8-888-8-888-8-888---------------------------------------------------|
A|-6-666-6-666-8-888-8-888---------------------------------------------------|
E|---------------------------------------------------------------------------|

Repeat this twice :)


************************************

| /   slide up
| \   slide down
| h   hammer-on
| p   pull-off
| ~   vibrato
| +   harmonic
| x   Mute note
| b   Bend
| pb  Pre-bend
| br  Bend release
| pbr Pre-bend release
| brb Bend release bend

************************************
Добавлено: 03.10.2015
Вам также может быть интересно:
Другие материалы по этой песне:
  • Аккорды и текст

Страница создана 03.10.2015
http://primanota.ru/maximum-the-hormone/porisumanfakku-chords.htm
Привет, Гость.
Предлагаем пройти революционный курс по гитаре.
Подарок от PrimaNota.Ru, забирай!