PrimaNota.ru - самый крупный в мире бесплатный архив песенных текстов, аккордов, табулатур и нот


Maximum The Hormone - Shimi - текст песни, таба, видео

Регистрация Запомнить меня
Войти через:  Facebook Google Twitter Vk Yandex Mail.ru

Maximum The Hormone - Shimi - текст песни, таба, видео

Печатать
Просмотров: 125
E-B-G-D-A-D.
This song is very simple and easy. This tab was made with the notes 
who came in my mind when I heard the music, but I think it sounds like.

THE INTRO --
e|----------------------------------------------|
b|----------------------------------------------|
g|----------------------------------------------|
D|-0-0-3-5-3-5-6-5-3-5-3-0-3--------------------|
A|-0-0-3-5-3-5-6-5-3-5-3-0-3--------------------|
D|-0-0-3-5-3-5-6-5-3-5-3-0-3--------------------|

e|----------------------------------------------|
b|----------------------------------------------|
g|----------------------------------------------|
D|-0-0-3-5-3-5-666666-55------------------------|
A|-0-0-3-5-3-5-666666-55------------------------|
D|-0-0-3-5-3-5-666666-55------------------------|

e|----------------------------------------------|
b|----------------------------------------------|
g|----------------------------------------------|
D|-0-0-3-5-3-5-6-5-3-5-3-0-3--------------------|
A|-0-0-3-5-3-5-6-5-3-5-3-0-3--------------------|
D|-0-0-3-5-3-5-6-5-3-5-3-0-3--------------------|

e|----------------------------------------------|
b|----------------------------------------------|
g|----------------------------------------------|
D|-0-3~5-3-0-3~5-0-0-0--------------------------|
A|-0-3~5-3-0-3~5-0-0-0--------------------------|
D|-0-3~5-3-0-3~5-0-0-0--------------------------|

Добавлено: 03.10.2015
Другие материалы по этой песне:

Страница создана 22.07.2012
http://primanota.ru/maximum-the-hormone/shimi-chords.htm
Привет, Гость.
Предлагаем пройти революционный курс по гитаре.
Подарок от PrimaNota.Ru, забирай!