PrimaNota.ru - самый крупный в мире бесплатный архив песенных текстов, аккордов, табулатур и нот


Maximum The Hormone - Tsume Tsume Tsume - текст песни, таба, бас-таба, видео

Регистрация Запомнить меня
Войти через:  Facebook Google Twitter Vk Yandex Mail.ru

Maximum The Hormone - Tsume Tsume Tsume - текст песни, таба, бас-таба, видео

Печатать
Просмотров: 296
-------------------------------------------------------------------------------
                             Tsume Tsume Tsume - Maximum The Hormone
-------------------------------------------------------------------------------
Tabbed by: Noah
Email: retarded.spork@gmail.com

Tuning: Drop C

Here's all the parts find out the order yourself.

| /  slide up
| \  slide down
| h  hammer-on
| p  pull-off
| ~  let ring
| +  harmonic
| x  palm mute
| tp tremolo pick


D|---------------------------------------------------------------------------|
A|---------------------------------------------------------------------------|
F|--5-5--555--5-5-5-5-6~--5-5-555--5-5-5-5-8~--------------------------------|
C|--4-4--444--4-4-4-4-5~--4-4-444--4-4-4-4-7~--------------------------------|
G|--3-3--333--3-3-3-3-4~--3-3-333--3-3-3-3-6~--------------------------------|
C|---------------------------------------------------------------------------|
         +++                  +++

D|---------------------------------------------------------------------------|
A|---------------------------------------------------------------------------|
F|--5-5--555--5-5-5-5-6~--5-5-555--5-6-5-8~----------------------------------|
C|--4-4--444--4-4-4-4-5~--4-4-444--4-5-4-7~----------------------------------|
G|--3-3--333--3-3-3-3-4~--3-3-333--3-4-3-6~----------------------------------|
C|---------------------------------------------------------------------------|
         +++                  +++  x x x

D|---------------------------------------------------------------------------|
A|---------------------------------------------------------------------------|
F|--5-5--555--5-5-5-5-6~--5-5-555--5-5-5-5-8~--------------------------------|
C|--4-4--444--4-4-4-4-5~--4-4-444--4-4-4-4-7~--------------------------------|
G|--3-3--333--3-3-3-3-4~--3-3-333--3-3-3-3-6~--------------------------------|
C|---------------------------------------------------------------------------|
         +++                  +++

D|---------------------------------------------------------------------------|
A|---------------------------------------------------------------------------|
F|--5-5--555--5-5-5-5-6~--5-5-555---8tp--------------------------------------|
C|--4-4--444--4-4-4-4-5~--4-4-444---7tp--------------------------------------|
G|--3-3--333--3-3-3-3-4~--3-3-333---6tp--------------------------------------|
C|---------------------------------------------------------------------------|
         +++                  +++

D|------------------|
A|------------------|
F|------6------6----|  X 12
C|----5------5------|
G|--3------4-----3--|
C|------------------|

D|-------------------------------|
A|-------------------------------|
F|---------10----------------10--|  X 12
C|--0-9h10----0--9h10-0h9h10-----|
G|-------------------------------|
C|-------------------------------|

D|-------------------------------|
A|-------------------------------|
F|-------------------------------|  X 4
C|--0~---9-0-10-0~---9-0-10------|
G|-------------------------------|
C|-------------------------------|

D|------------|
A|------------|
F|------------|  X 8
C|--3-4-3-6---|
G|--3-4-3-6---|
C|--3-4-3-6---|
    x x x x

D|------------|
A|------------|
F|------------|  X 4
C|--3-4-3-6---|
G|--3-4-3-6---|
C|--3-4-3-6---|

D|---------------------------------------------------------------------------|
A|---------------------------------------------------------------------------|
F|--------------------------------------------------------------------------|
C|--3-3-----6-6-----5~--5-5-5-5-5-5------------------------------------------|
G|--3-3-----6-6-----5~--5-5-5-5-5-5------------------------------------------|
C|--3-3-----6-6-----5~--5-5-5-5-5-5------------------------------------------|
                        x x x x x x

D|---------------------------------------------------------------------------|
A|---------------------------------------------------------------------------|
F|----5--------------------------8--------5-----------------------88888------|
C|----5-5------6--------8--------8-8------5-5------6--------8-----88888------|
G|--3----------6-6------8-8----6--------3----------6-6------8-8---66666------|
C|-----------6--------8--------------------------6--------8------------------|

D|-----------------------------------------|
A|-----------------------------------------|
F|--55555555-------------------88888888----|
C|--55555555-66666666-88888888-88888888----|
G|--33333333-66666666-88888888-66665555----|
C|-----------66666666-88888888-------------|

D|-----------------------------------------|
A|-----------------------------------------|
F|--55555555-------------------88888888----|
C|--55555555-66666666-88888888-88888888----|
G|--33333333-66666666-88888888-66666666----|
C|-----------66666666-88888888-------------|

D|-----------------------------------------|
A|-----------------------------------------|
F|--5~-----------------88888---------------|
C|--5~----6-6----8~----88888---------------|
G|--3~----6-6----8~----66666---------------|
C|--------6-6----8~------------------------|

Then the chord after the weird laughing part is:

D|--------8-|
A|------7---|
F|----8-----|
C|--7-------|
G|----------|
C|----------|

Then the bridge is just a bunch of these:

D|-----------|
A|-----------|
F|-----------|
C|------3-4--|
G|------3-4--|
C|------3-4--|
        x x

D|-----------|
A|-----------|
F|-----------|
C|--3-6-3-4--|
G|--3-6-3-4--|
C|--3-6-3-4--|
    x x x x
Добавлено: 06.06.2012
Другие материалы по этой песне:

Страница создана 06.06.2012
http://primanota.ru/maximum-the-hormone/tsume-tsume-tsume-chords.htm
Привет, Гость.
Предлагаем пройти революционный курс по гитаре.
Подарок от PrimaNota.Ru, забирай!