PrimaNota.ru - самый крупный в мире бесплатный архив песенных текстов, аккордов, табулатур и нот


Max Richter - The Departure Reflection - таба, видео

Регистрация Запомнить меня
Войти через:  Facebook Google Twitter Vk Yandex Mail.ru

Max Richter - The Departure Reflection - таба, видео

Печатать
Просмотров: 86
-------------------------------------------------------------------------------
                             The Departure - Max Richter
-------------------------------------------------------------------------------
Tabbed by: Andrew Edelson
E-mail:

Tuning: Standard - Capo 3rd Fret
  INTRO
e|------0-------0-------0-------0--------------------------------------------|
B|----1---1---1---1---1---1---1---1------------------------------------------|
G|--2-------2-------2-------2------------------------------------------------|
D|---------------------------------------------------------------------------|
A|---------------------------------------------------------------------------|
E|---------------------------------------------------------------------------|
  
e|------1-------1-------1-------1--------------------------------------------|
B|----3---3---3---3---3---3---3---3------------------------------------------|
G|--2-------2-------2-------2------------------------------------------------|
D|---------------------------------------------------------------------------|
A|---------------------------------------------------------------------------|
E|---------------------------------------------------------------------------|
  
e|---------------------------------------------------------------------------|
B|------3-------3-------3-------3--------------------------------------------|
G|----4---4---4---4---4---4---4---4------------------------------------------|
D|---------------------------------------------------------------------------|
A|--0-------0-------0-------0------------------------------------------------|
E|---------------------------------------------------------------------------|

e|------0-------0-------0-------0--------------------------------------------|
B|----1---1---1---1---1---1---1---1------------------------------------------|
G|--2-------2-------2-------2------------------------------------------------|
D|---------------------------------------------------------------------------|
A|---------------------------------------------------------------------------|
E|---------------------------------------------------------------------------|

e|------0-------0-------0----------------------------------------------------|
B|----1---1---1---1---0---0--- --0-------------------------------------------|
G|--0-------0-------1-------1------------------------------------------------|
D|---------------------------------------------------------------------------|
A|---------------------------------------------------------------------------|
E|---------------------------------------------------------------------------|
  VERSE
e|------0-------0-------1----------------------------------------------------|
B|----1---1---1---1---1---1------1-------------------------------------------|
G|--2-------2-------2-------2------------------------------------------------|
D|---------------------------------------------------------------------------|
A|---------------------------------------------------------------------------|
E|---------------------------------------------------------------------------|

e|------0-------0-------0----------------------------------------------------|
B|----0---0---0---0---0---0------0-------------------------------------------|
G|--4---------------1-------1------------------------------------------------|
D|----------5----------------------------------------------------------------|
A|---------------------------------------------------------------------------|
E|---------------------------------------------------------------------------|

e|------0-------0--------1---------------------------------------------------|
B|----1---1---1---1----1---1---1-3-------------------------------------------|
G|--2-------2-------2--------2-----------------------------------------------|
D|---------------------------------------------------------------------------|
A|---------------------------------------------------------------------------|
E|---------------------------------------------------------------------------|

e|------0-------0-------0----------------------------------------------------|
B|--1-----1---1---1---0---0---0-3--------------------------------------------|
G|----0-----0-------1-------1------------------------------------------------|
D|---------------------------------------------------------------------------|
A|---------------------------------------------------------------------------|
E|---------------------------------------------------------------------------|

e|------0-------0-------1---------------0-------0-------0--------------------|
B|--1-----1---1---1---1---1---1---3-1-----1---1---1---0---0-----1------------|
G|----2-----2-------2-------2---------0-----0-------1---------1--------------|
D|---------------------------------------------------------------------------|
A|--0-------------------------------3----------------------------------------|
E|------------------1-------------------------------0-------0----------------|
  2x
e|------0-------0-------1---------------0-------0-------0--------------------|
B|----1---1---1---1---1---1---1---3-1-----1---1---1---0---0---0-1------------|
G|--4-------2-------2-------2---------0-----0-------1-------1----------------|
D|---------------------------------------------------------------------------|
A|--0-------------------------------3----------------------------------------|
E|------------------1-------------------------------0------------------------|

e|------0-------0-------0-------0--------------------------------------------|
B|----1---1---1---1---1---1---1---1------------------------------------------|
G|--4-------2-------2-------2-------2----------------------------------------|
D|---------------------------------------------------------------------------|
A|--0------------------------------------------------------------------------|
E|---------------------------------------------------------------------------|


************************************

| /   slide up
| \   slide down
| h   hammer-on
| p   pull-off
| ~   vibrato
| +   harmonic
| x   Mute note
| b   Bend
| pb  Pre-bend
| br  Bend release
| pbr Pre-bend release
| brb Bend release bend

************************************
Добавлено: 10.05.2016
Другие материалы по этой песне:
  • Аккорды и текст

Страница создана 10.05.2016
http://primanota.ru/max-richter/departure-reflection-chords.htm
Привет, Гость.
Предлагаем пройти революционный курс по гитаре.
Подарок от PrimaNota.Ru, забирай!