PrimaNota.ru - самый крупный в мире бесплатный архив песенных текстов, аккордов, табулатур и нот


Джулиани Мауро - Moderately - таба, видео

Регистрация Запомнить меня
Войти через:  Facebook Google Twitter Vk Yandex Mail.ru

Джулиани Мауро - Moderately - таба, видео

Печатать
Просмотров: 106
"Moderately" by Mauro Giuliani

classical piece, very easy.
Transcription by Hani jabbour, lebaneese student at Ottawa university, 
computer engineering.


all you have to do is keep your left fingers on the frets as long as 
possible so the tone keep sounding. (sustain for all possible notes)
it is a 3/4, ( you can notice that each note is a half ) so it must be 
played a bit quickly, but without changing the rythm. It is really easy, yet 
amusing, it could be a very good piece for new learners to work out their 
left hand fingers, because it sometimes need some stretching ( if sustain is 
respected !). Let all the notes ring.

for any inquiries, just mail me at the address above.


= means sustain the note, i gave the biginning as an example, you
should do the same for the rest of the song. It is not difficult.

E---------3=====0=====|-------------0-----|-------------1--------
B---------------------|-------1-----------|-------3--------------
G------0=====0=====0==|----0-----0-----0--|----0-----0-----0-----
D---------------------|-------------------|----------------------
A---3=================|-3-----------------|-2--------------------
E---------------------|-------------------|----------------------


E---------0-----------|--------3-----0----|--------------0-------
B---------------1-----|-------------------|--------1-------------
G------0-----0-----0--|-----0-----0-----0-|-----0-----0-----0----
D---------------------|-------------------|----------------------
A---3-----------------|--3----------------|--3-------------------
E---------------------|-------------------|----------------------


E---------1-----------|-------------------| this last part should be
B---------------3-----|---1---------------| played with four fingers
G------0-----0-----0--|---0---------------| in the same time hitting
D---------------------|---2---------------| the four notes.
A---------------------|---3---------------|
E---3-----------------|-------------------|

repeat the from the beginning then continue ...

E---------------------|--------0----------|--------1-------------
B---------3-----0-----|--------------1----|--------------3-------
G------0-----0-----0--|-----0-----0-----0-|-----0-----0-----0----
D---3-----------------|--2----------------|----------------------
A---------------------|-------------------|--2-------------------
E---------------------|-------------------|----------------------


E---------0-----------|-------------------|--------1-------------
B---------------1-----|--------3-----0----|--------------3-------
G------0-----0-----0--|-----0-----0-----0-|-----0-----0-----0----
D---------------------|--3----------------|----------------------
A---3-----------------|-------------------|----------------------
E---------------------|-------------------|--3-------------------


E-------------|  Then you repeat the wohle thing from the
B-----1-------|  biginning to get the whole song.
G-----0-------|
D-----2-------|
A-----3-------|
E-------------|



If anybody knows how to play "desperado" from the movie of antonio banderas, 
please tab it and send it to the (tm) because i am not able to find it 
anywhere.


__________________________________________________________________
     
Добавлено: 12.08.2013
Другие материалы по этой песне:
  • Аккорды и текст

Страница создана 12.08.2013
http://primanota.ru/mauro-giuliani/moderately-chords.htm
Привет, Гость.
Предлагаем пройти революционный курс по гитаре.
Подарок от PrimaNota.Ru, забирай!