PrimaNota.ru - самый крупный в мире бесплатный архив песенных текстов, аккордов, табулатур и нот


Джулиани Мауро - Opus 50 No 3 - таба, видео

Регистрация Запомнить меня
Войти через:  Facebook Google Twitter Vk Yandex Mail.ru

Джулиани Мауро - Opus 50 No 3 - таба, видео

Печатать
Просмотров: 109
While I found the music for this and many other great classical guitar
pieces in the book "100 Graded Classical Guitar Studies" by Frederick
Noad (published by Amsco Pub.), the tab is all my own.

Submitted by Charles Wright.
In the key of C 2/4 time
'----' = 2 beats
0-0-|3---|0-0-|3---|0---|----|----|----|0-0-|3---|0-0-|3---|
1-1-|3---|1-1-|3---|--1-|--3-|1-0-|1---|----|----|----|----|
----|----|----|----|----|2---|0---|----|-0-0|-0-0|-0-0|-0-0|
----|----|----|----|--2-|3---|----|----|----|--0-|----|--0-|
3-3-|2---|3-3-|2---|3---|----|----|3---|--2-|2---|--3-|2---|
----|----|----|----|----|----|--3-|----|3---|----|3---|----|
		   (begin triplets)
0---|----|----|----|--0-----|--1-----|--0-----|--1-----|
--1-|-013|1-0-|1---|------1-|------3-|------1-|------3-|
-0-0|2---|-0-0|----|-0---0--|-0---0--|-0---0--|-0---0--|
--2-|3---|2-0-|----|----2---|0-------|----2---|0-------|
3---|----|----|3---|3-------|----2---|3-------|----2---|
----|----|----|----|--------|--------|--------|--------|
	C.1      |(end of triplets)'----' = 1 beat
--0-----|--------|-------|--------|------0-|3-------|
------1-|----3---|1--0---|----1(1)|----1--1|--------|
-0---0--|--2--2--|-0--0--|--0-----|-0-0-0--|-0-0-0-0|
----2---|-3----3-|--2--0-|-2------|--2-----|--0---0-|
3-------|--------|-------|3-------|3-------|2---2---|
--------|1-------|3--3---|--------|--------|--------|

------0-|3-------|--0-----|----0---|--------|--------|
----1--1|--------|------1-|--3---3-|--1----0|1-------|
-0-0-0--|-0-0-0-0|-0-0-0-0|-2-2-2-2|------0-|0-------|
--2-----|--0---0-|----2---|3-------|-2-2-0--|2-------|
3-------|2---2---|3-------|--------|--------|3-------|
--------|--------|--------|--------|3---3---|--------|

Thanks to Andrew Burt of ABC Guitar Lessons in Houston.
     
Добавлено: 10.07.2013
Вам также может быть интересно:
Другие материалы по этой песне:
  • Аккорды и текст

Страница создана 10.07.2013
http://primanota.ru/mauro-giuliani/opus-50-no-3-chords.htm
Привет, Гость.
Предлагаем пройти революционный курс по гитаре.
Подарок от PrimaNota.Ru, забирай!