PrimaNota.ru - самый крупный в мире бесплатный архив песенных текстов, аккордов, табулатур и нот


Джулиани Мауро - Opus 51 No 1 - таба, видео

Регистрация Запомнить меня
Войти через:  Facebook Google Twitter Vk Yandex Mail.ru

Джулиани Мауро - Opus 51 No 1 - таба, видео

Печатать
Просмотров: 88
After a few corrections, here is Op. 51 No. 1
All dynamics are as they appear in "100 Graded
Classical Guitar
Studies" by Frederick Noad. c1985 Amsco Publications.
The tab is all my own, by Charles Wright.
sf              sf				          cresc.
|---------------|---------------|---------------|-------------0-|
|---------------|---------------|---------------|---------1-----|
|-0-------------|-2-------------|-0-------------|-----0---------|
|-2-------0---2-|-3---2---0-----|-------------3-|-2-------------|
|-----3---------|-------------3-|-2-------0---2-|-3-------------|
|---------------|---------------|-----3---------|---------------|
		                 sf
|-3-------------|---------------|-3-------------|-0-----------0-|
|-----1---0---1-|-3-------0---3-|-----3---1---3-|---------1-----|
|---------------|-----0---------|---------------|-----0---------|
|-----2---0-----|---------------|-----3---2---0-|---------------|
|-------------3-|-2-------------|---------------|-3-------------|
|---------------|---------------|---------------|---------------|
sf		 1/2.C.1--------|
|-3-----------0-|-3---1-------0-|-0-------------|---------------|
|-----1---3-----|-1-------1-----|-----3-------1-|-1---0---------|
|---------------|---------------|-2-------2-----|-0-------2---0-|
|---------------|---------------|---------------|---------------|
|-----3---2---1-|-0-------------|---------------|---------------|
|---------------|---------3-----|-1-------2-----|-3-------------|
sf       sf      sf      sf      sf      sf      p
|---------------|---------1-----|---------3-----|-0-------------|
|---------1-----|---------------|-3-------------|-----1---0-----|
|-0-------------|-2-------------|---------------|-------------0-|
|-2-------0---2-|-3---2---0-----|---------------|---------0-----|
|-----3---------|-------------3-|-2-------0---2-|-3-------------|
|---------------|---------------|-----3---------|---------------|

|---------------|-0-------------|---------------|-----3-------3-|
|-1-------3-----|-----1-------3-|-1-------0-----|-1-------0-----|
|-----0-------0-|---------2-----|-----0-------0-|---------------|
|-2-------------|---------3-----|-2-------0-----|---------3-----|
|---------2-----|-3-------------|---------------|-3-------------|
|---------------|---------------|---------------|---------------|
     >sf     >sf   			   	  f
|-----3-------3-|---------------|---------------|---------------|
|-1-------3-----|-5-----------3-|-1-------0-----|-1-------------|
|---------------|-----5---2-----|-0-------0-----|-0-------------|
|-2-------------|---------------|-2-------0-----|-2-------------|
|---------2-----|-3-------------|---------------|-3-------------|
|---------------|-----0---1-----|-3-------3-----|---------------|

Thanks to Andrew Burt of ABC Guitar Lessons in
Houston.
     
Добавлено: 12.10.2013
Другие материалы по этой песне:
  • Аккорды и текст

Страница создана 12.09.2013
http://primanota.ru/mauro-giuliani/opus-51-no-1-chords.htm
Привет, Гость.
Предлагаем пройти революционный курс по гитаре.
Подарок от PrimaNota.Ru, забирай!