PrimaNota.ru - самый крупный в мире бесплатный архив песенных текстов, аккордов, табулатур и нот


Mastodon - Deathbound - таба, видео

Регистрация Запомнить меня
Войти через:  Facebook Google Twitter Vk Yandex Mail.ru

Mastodon - Deathbound - таба, видео

Печатать
Просмотров: 109
Уроки эстрадного вокала в Санкт-Петербурге
Deathbound -mastodon
Tabbed by ear
Enjoy
Drop C


INTRO/CHORUS
D|-----------------------------------------
A|-----------------------------------------
F|-----------7--9-10--12-13-14-------------
C|-10/-7--------------------------10--7--6-  
G|--8/-5-----5--7--8--10-11-12-----8--5--4-
C|-----------------------------------------

TRANSITION 
|---------------------------------------------------------
|---------------------------------------------------------
|---------------------------------------------------------
|---------------------------------------------------------
|---------------------------------------------------------
|--0-2-0-3-0-5-6-0-6-7-0-8-9---0-2-0-3-0-5-7-0-5-3--0-3-5-


|---------------------------------------------------------
|---------------------------------------------------------
|---------------------------------------------------------
|---------------------------------------------------------
|--0-2-0-3-0-5-6-0-6-7-0-8-9---0-2-0-3-0-5-7-0-5-3--0-3-5-
|---------------------------------------------------------

VERSE (Guitar 1)
|--------           |-------                |--------
|--------           |-------                |--------
|-10/13--           |-10/14-                |-10/13--
|--------(x4) then  |-------(x2) and again  |--------(x2)
|--8/11--           |--8/12-                |--8/11--
|--------           |-------                |--------
Tremolo pick^


CHORUS
|------------------------------------------
|------------------------------------------
|------------7--9-10--12-13-14-------------
|--10/-7--------------------------10--7--6-  
|---8/-5-----5--7--8--10-11-12-----8--5--4-
|------------------------------------------

TRANSITION 
|---------------------------------------------------------
|---------------------------------------------------------
|---------------------------------------------------------
|---------------------------------------------------------
|---------------------------------------------------------
|--0-2-0-3-0-5-6-0-6-7-0-8-9---0-2-0-3-0-5-7-0-5-3--0-3-5-


|---------------------------------------------------------
|---------------------------------------------------------
|---------------------------------------------------------
|---------------------------------------------------------
|--0-2-0-3-0-5-6-0-6-7-0-8-9---0-2-0-3-0-5-7-0-5-3--0-3-5-
|---------------------------------------------------------



VERSE (Guitar 1)
|--------           |-------                |--------
|--------           |-------                |--------
|-10/13--           |-10/14-                |-10/13--
|--------(x4)       |-------(x2)            |--------(x2)
|--8/11--           |--8/12-                |--8/11--
|--------           |-------                |--------



 BREAK          V Slide down fret board
|----------------------------------------------------------------------------------------
|----------------------------------------------------------------------------------------
|-----------------10/-----------------10/--13/------------------10/-----------------4--8-
|----------------------------------------------------------------------------------------
|------------------8/------------------8/--11/-------------------8/-----------------2--6-
|--0-12-0-7-10-0-0-----0-12-0-7-10-0-0----------0-12-0-7-10-0-0------0-12-7-10-0-0-------




BRIDGE
|-------------------------------------------------------------------------
|-------------------------------------------------------------------------
|-------------4---4---4---5---5/7/5---4---4---4---5/7/5---7/8/7-----------
|-------------------------------------------------------------------------  (X2)
|-------------2---2---2---3---3/5/3---2---2---2---3/5/3---5/6/5-----------
|-000000000000000000000000000000000000000000000000000000000000000000000000

^Palm muted^


CHORUS
|-----------------------------------------
|-----------------------------------------
|-----------7--9-10--12-13-14-------------
|-10/-7--------------------------10--7--6-  
|--8/-5-----5--7--8--10-11-12-----8--5--4-
|-----------------------------------------


OUTRO

|---------------------------------------------------------
|---------------------------------------------------------
|---------------------------------------------------------
|---------------------------------------------------------
|---------------------------------------------------------
|--0-2-0-3-0-5-6-0-6-7-0-8-9---0-2-0-3-0-5-7-0-5-3--0-3-5-


|---------------------------------------------------------
|---------------------------------------------------------
|---------------------------------------------------------
|---------------------------------------------------------
|--0-2-0-3-0-5-6-0-6-7-0-8-9---0-2-0-3-0-5-7-0-5-3--0-3-5-
|---------------------------------------------------------

FINISH ON
|---
|---
|-9/
|--- slide down fret board  
|-7/
|---


LYRICS

Going through the deep icy waves
Thrown in end all because death waits
Throughout during the winter
Guardian of land and sea

Standing close to the throne
Violent 'cuz I can not see

Power royalty our Presidents hanging
No one left here anymore

Icy Squall on the Tundra
Obedience how we reign
Enjoy the sights we know
Soon it will be turned

Grovel Life Expelled Become Immortal
Forceful hand, unfeeling
Groaning dead are near
Sordid tale of man

Molten rock renown
Distant brother of man
Groaning dead are near
Sordid tale of man














Добавлено: 31.05.2015
Другие материалы по этой песне:

Страница создана 14.09.2013
http://primanota.ru/mastodon/deathbound-chords.htm
Привет, Гость.
Предлагаем пройти революционный курс по гитаре.
Подарок от PrimaNota.Ru, забирай!