PrimaNota.ru - самый крупный в мире бесплатный архив песенных текстов, аккордов, табулатур и нот


Marty Friedman - Farewell - таба, видео

Регистрация Запомнить меня
Войти через:  Facebook Google Twitter Vk Yandex Mail.ru

Marty Friedman - Farewell - таба, видео

Печатать
Просмотров: 179
                               FAREWELL
                  By MARTY FRIEDMAN'S TRUE OBSESSIONS
                      Transcribed By SÓCRTAES

*****************************************
*Contact to Sócrates:                   *
*                                       *
*socrates@dreamtheater.zzn.com          *
*http:\\www.geocities.com\socratesworld *
*****************************************

    Well, this is my version of "Farewell" by Mr.Friedman, in fact 
this
is not a too complex composition, just have a lot of bends, slides and
other things.
    I transcribe it the piano part too and I tried to be the most 
nearly as
possible to transcribe it to guitar, so I really hope you enjoy it;)
    anything you want to say to me, just emailme amigo!!


Notation:
---------
^   = pull-off & hammer-on
/ \ = slides
~~~ = vibrato
!   = arpeggiated chord
b   = bends 1 or ½ tones
pb  = pre-bends
ub  = unison bends
br  = bend & release
pbr = pre-bend & release

standard tunning (E)
time  : 4/4

   1                 1
|-----------------|------------|----------------|
|-8b---8--6\5-6---|-8b---8-6^5-|-8/10-8-6^5-6-8-|
|---------------7-|------------|----------------|
|-----------------|------------|----------------|
|-----------------|------------|----------------|
|-----------------|------------|----------------|


|----------------------------|
|-10-13^11-10----------------|
|-------------12-10^12^10^---|
|-------------------------12-|
|----------------------------|
|----------------------------|


|--------------------|---------------------|----------------------|
|-10\-7--4-----------|---------------------|----------------------|
|----------5^4-4-2^4-|-2~~~-0/2--0/2-0-----|----------------------|
|--------------------|-----------------2-2~|------4-5-2/5-7^5-4-5-|
|--------------------|---------------------|--2/7-----------------|
|--------------------|---------------------|----------------------|

    Piano:                           Em
    (w/fingers)
|-----------------------------------|--------7-----------|
|-----------------------------------|------8-----8-------|
|-----------------------------------|----9-----9-----9---|
|-----------------------------2-----|--------------9-----|
|-7-------0-------2-0-3-2-5-3---5-3-|--------------------|
|---0-2-3---3-2-0-------------------|--7-----------------|

 B
|--------------------|
|---------7----------|
|-------8-----8------|
|-----9-----9--------|
|---9-----------9----|
|-7------------------|


  D       Bm            Em/G                     E7
|-------------7-------|------------------------|-------------1------|
|-------7---------7---|-8--------8-------------|-------0-3-----3----|
|-----7-----7---7---7-|--------9-----9---------|-----1-----1--------|
|---7-----------------|------9-----9---9----9--|---0----------------|
|-5-------------------|---10-------------10----|-2------------------|
|---------7-----------|-0----------------------|---------4----------|


|-------2-5---2---|----------------1-----!5--||
|-0---2-----2-----|--!1---1-4----2-------!2--||
|---2-----------2-|--!2-2------1-----1---!2--||
|-----------------|--!1------------------!4--||
|-----------------|--!3--------4-------------||
|-2---------------|--------------------------||

  Main Theme:
|--------------|------------|----------------|-------------|
|--------------|------------|----------------|-------------|
|--------------|------------|----------------|---7^5-5~~-4-|
|-9--7-5-4-5---|-7/9-7-5-4--|-/9--7-5-4-5--7-|-9-----------|
|------------7-|------------|----------------|-------------|
|--------------|------------|----------------|-------------|

               ½                ½
|-----------------|----------------|---------------------|
|-----------------|----------------|---------------------|
|-/6--2-4-5--/6br-|-4---0-2-3--4br-|-\2----2-------2-2/4-|
|-----------------|----------------|---------4-1-4-------|
|-----------------|----------------|---------------------|
|-----------------|----------------|---------------------|


|------------------------|
|------------------------|
|-0-4-4/9--7-5-4-2-------|
|------------------5-4-2-|
|------------------------|
|------------------------|

                                       ½    1
|------------------------|-------------------------------|
|---------------------3--|-2--------------10-------------|
|-----------------2-4----|------9-11-11b--12ub----12-14--|
|--4--------2-4-5--------|-------------------------------|
|-------3^5--------------|-------------------------------|
|------------------------|-------------------------------|

    1                 1                             1
|--------------------------|----------------------------|
|-12----------10-11-11b--r-|-10----10----------10-10pbr-|
|-14ub-----/8--------------|----------11----11----------|
|--------------------------|-------------10-------------|
|--------------------------|----------------------------|
|--------------------------|----------------------------|

          1
|-------12---------------------||
|-8-12--15ub-15-13-12-10-8-7^5-||
|------------------------------||
|------------------------------||
|------------------------------||
|------------------------------||

       Clean:
       Am
|-----|------------------------------|-------------------------------- ---|
|-/7--|------------------------------|-------------------------------- ---|
|-----|------------------------------|--------12/14-12---------------- ---|
|-----|-------9^10-9-7---------------|--------12/14----15-14-14-12/14- 14-|
|-----|-----7----------10-10-8-10-10-|-8-8/12------------------------- ---|
|-----|-7^8--------------------------|-------------------------------- ---|


|---------------------------------------|---------15/17--15--13\12---- --||
|---------------------------------------|---------15/17--15--------9- 10-||
|--------16/17--16-14\12-12\--10/12\-12-|-10/--14------------------8- 9--||
|--------17/19--------------------------|----------------------------- --||
|--15/19--------------------------------|----------------------------- --||
|---------------------------------------|----------------------------- --||


|-------------|------------------------|------------------------------ |
|-10/12-------|------------------------|------------------------------ |
|-9-/11-------|------------------------|------------------------------ |
|-----------9-|---------------9/12-----|------------------------------ |
|-------------|-10---12-10-12-------14-|-12/15--14^12^10-12/15--14^12- |
|-------------|------------------------|------------------------------ |


|----------------------------|---------------------------|
|----------------------------|-----------3/7-5-4-5-7^8^7-|
|-------------11-11/14-12^11-|-12\2--4-5-----------------|
|----12\9-12-----------------|---------------------------|
|-14-------------------------|---------------------------|
|----------------------------|---------------------------|


|------------------|----------------|
|-7^8--7\5---------|----------------|
|----------4/7---4-|-4/9--7---------|
|------------------|--------9^7-5---|
|------------------|--------------6-|
|------------------|----------------|

                                 ½
|---------------------|----------------------------------|
|----------------8-10-|-10/12--12b---12-10---------------|
|--------------7------|--------------------12-11-9-------|
|-5/7--5-7-7/9--------|----------------------------12-10\|
|---------------------|----------------------------------|
|---------------------|----------------------------------|


|--------------------|
|--------------------|
|--------------------|
|-9------------------|
|---12-10-9----------|
|----------12-10-8-7-|

  Piano:
|----7-----------7-10------------------------------------10----10--14- 17|
|------8-10-8-10------12-10-13-12-10----10-13--12-10-12-----12-------- --|
|------------------------------------12------------------------------- --|
|--------------------------------------------------------------------- --|
|--------------------------------------------------------------------- --|
|--------------------------------------------------------------------- --|


|-15-14-15-----------------14----------14-15--14---------------|
|--------------------13-15----17-16-17-----------17----15------|
|----------14-14--16--------------------------------16---------|
|--------------------------------------------------------------|
|--------------------------------------------------------------|
|--------------------------------------------------------------|

                                                          ½
|--------------------------------------------15-17-19---19b----|
|----17--15-------------------------------15-------------------|
|-16----------16-14----------14-----14-16----------------------|
|-------------------17----17-----17----------------------------|
|----------------------18--------------------------------------|
|--------------------------------------------------------------|


|-19-17----------------------------------------------|
|-------20-19-17-------------------------------------|
|----------------19-17-16----------------------------|
|-------------------------19-17-16-------------------|
|----------------------------------19-17-------------|
|----------------------------------------19-17-15----|

  Guitar (clean)
|---------------|----------------|--------------|---------|
|-8-\7--8-------|-7-/8-----------|--------------|---------|
|-12\11-12------|-11/12--7-------|--------------|---------|
|---------------|----------9-----|--8-7-7-------|-----8^9-|
|---------------|------------10--|---------9-7--|-6-------|
|---------------|----------------|--------------|---7-----|

  Guitar (w/dist)        1                ½           1
|---------------|--12-----------------|------------|------------|
|------12-12b---|------14pb--r--12----|------------|------------|
|---13----------|------------------13-|-13br-------|-11br^9^11--|
|--x------------|---------------------|------14----|------------|
|-x-------------|---------------------|------------|------------|
|---------------|---------------------|------------|------------|

      1
|----------||
|---10gb---||
|----------||
|-9--------||
|----------||
|----------||


|--------------|------------|----------------|-------------|
|--------------|------------|----------------|-------------|
|--------------|------------|----------------|---7^5-5~~-4-|
|-9--7-5-4-5---|-7/9-7-5-4--|-/9--7-5-4-5--7-|-9-----------|
|------------7-|------------|----------------|-------------|
|--------------|------------|----------------|-------------|

               ½                ½
|-----------------|----------------|---------------------|
|-----------------|----------------|---------------------|
|-/6--2-4-5--/6br-|-4---0-2-3--4br-|-\2----2-------2-2/4-|
|-----------------|----------------|---------4-1-4-------|
|-----------------|----------------|---------------------|
|-----------------|----------------|---------------------|


|------------------------|
|------------------------|
|-0-4-4/9--7-5-4-2-------|
|------------------5-4-2-|
|------------------------|
|------------------------|

                                       ½    1
|------------------------|-------------------------------|
|---------------------3--|-2--------------10-------------|
|-----------------2-4----|------9-11-11b--12ub----12-14--|
|--4--------2-4-5--------|-------------------------------|
|-------3^5--------------|-------------------------------|
|------------------------|-------------------------------|

    1                 1                             1
|--------------------------|----------------------------|
|-12-------/8-10-11-11b--r-|-10----10----------10-10pbr-|
|-14ub---------------------|----------11----11----------|
|--------------------------|-------------10-------------|
|--------------------------|----------------------------|
|--------------------------|----------------------------|

          1
|-------12-------------------------||
|-8-12--15ub-15-13~-12-------------||
|----------------------14-12-11-12-||
|----------------------------------||
|----------------------------------||
|----------------------------------||

          1                                     1   1
|---------------|-------------------12-14-15--15b-15b--r^14--|--12--||
|-------13b-----|----------------12--------------------------|------||
|----12---------|-------11-12-14-----------------------------|------||
|-14------------|-12^14--------------------------------------|------||
|---------------|--------------------------------------------|------||
|---------------|--------------------------------------------|------||


Dream Theater newsletter - http://www.dreamtheater.net/uacmmail/
____________________________________________________________
Get your own Web-Based E-mail Service at http://www.zzn.com

     
Добавлено: 09.08.2013
Другие материалы по этой песне:
  • Аккорды и текст

Страница создана 09.08.2013
http://primanota.ru/marty-friedman/farewell-chords.htm
Привет, Гость.
Предлагаем пройти революционный курс по гитаре.
Подарок от PrimaNota.Ru, забирай!