PrimaNota.ru - самый крупный в мире бесплатный архив песенных текстов, аккордов, табулатур и нот


Marty Friedman - Time To Say Goodbye - таба, видео

Регистрация Запомнить меня
Войти через:  Facebook Google Twitter Vk Yandex Mail.ru

Marty Friedman - Time To Say Goodbye - таба, видео

Печатать
Просмотров: 354
------------------------------------------------------------------
            Time to say Goodbye Arpeggios - Marty Friedman
------------------------------------------------------------------
Tabbed by: Mikey_1990   
Youtube: mikey989

Tuning: Standard

e|----------10---15-10-----10\7-10-7-----10-7------------7-------|
B|-------12------------12-------------8--------8-------8---------|
G|----11-----------------------------------------7---7-----------|
D|-12----------------------------------------------9-------------|
A|---------------------------------------------------------------|
E|------------|-|---------------------------------------|--------|
  B Minor-----| |------------G Major--------------------|



e|-14-10----------------10----17-14----------------17\-----------|
B|-------12----------12-------------15----------15---------------|
G|----------11----11-------------------14----14------------------|
D|-------------12-------------------------16---------------------|
A|---------------------------------------------------------------|
E|---------------------------------------------------------------|
  B Minor ----------------|--|---------D Major-----------|



e|-15p12----12--15p12----12--/19-15---------------15-------------|
B|-------12-----------12------------17----------17---------------|
G|-------------------------------------16----16------------------|
D|----------------------------------------17---------------------|
A|---------------------------------------------------------------|
E|---------------------------------------------------------------|
  E Minor -----------------------------------------|



e|-20-15----15/12--15-12------15-12----------------12------------|
B|-------17--------------13---------13----------13---------------|
G|-------------------------------------12----12------------------|
D|----------------------------------------14---------------------|
A|---------------------------------------------------------------|
E|----------------------------------------------------|----------|
  C Major --------------------------------------------|



e|-15-10----10\7--10-7-----10-7-----------7----------------------|
B|-------12------------8--------8-------8------------------------|
G|-------------------------------7---7---------------------------|
D|---------------------------------9-----------------------------|
A|---------------------------------------------------------------|
E|-----------------------------------------|---------------------|
   |------------G Major--------------------|



e|-14-10----------10---14-10----------10--14-10----------10------|
B|-------12----12------------12----12-----------12----12---------|
G|----------11------------------11-----------------11------------|
D|---------------------------------------------------------------|
A|---------------------------------------------------------------|
E|---------------------------------------------------------------|
  B Minor--------------------------------------------------------|



e|-14-10---------14--15p14p12h14-----12----------------------------|
B|-------12---12------------------15-----15-13-12------------------|
G|----------11------------------------------------14-12-11h12p11---|
D|-----------------------------------------------------------------|
A|-----------------------------------------------------------------|
E|-------------|---------------------------------------------------|
  B minor -----|   D mixolydian -----------------------------------|



e|---------------------------------------------------------------|
B|---------------------------------------------------------------|
G|----------------------7~---------------------------------------|
D|-14-12-10----10~------5~---------------------------------------|
A|----------14----------5~---------------------------------------|
E|-------------------|-------------------------------------------|
   D mixolydian -----|  G5 


************************************

| /   slide up
| \   slide down
| h   hammer-on
| p   pull-off
| ~   vibrato
| +   harmonic
| x   Mute note
| b   Bend
| pb  Pre-bend
| br  Bend release
| pbr Pre-bend release
| brb Bend release bend

************************************
Добавлено: 10.06.2013
Вам также может быть интересно:
Другие материалы по этой песне:
  • Аккорды и текст

Страница создана 10.06.2013
http://primanota.ru/marty-friedman/time-to-say-goodbye-chords.htm
Привет, Гость.
Предлагаем пройти революционный курс по гитаре.
Подарок от PrimaNota.Ru, забирай!