PrimaNota.ru - самый крупный в мире бесплатный архив песенных текстов, аккордов, табулатур и нот


Mars Volta - Molochwalker - текст песни, таба, видео

Регистрация Запомнить меня
Войти через:  Facebook Google Twitter Vk Yandex Mail.ru

Mars Volta - Molochwalker - текст песни, таба, видео

Печатать
Просмотров: 113
Авторы музыки: Omar Rodriguez‐Lopez
Авторы текста: Cedric Bixler‐Zavala
-------------------------------------------------------------------------------
                     MOLOCHWALKER - The Mars Volta      
-------------------------------------------------------------------------------
Tabbed by: Steve Dubuque        
Email: steven.dubuque@tdbanknorth.com

Tuning: E A D G B E

this once... and hey dont judge me on the main riff part of this tab; these 
are the correct notes, i'm just not exactly sure where on the fretboard he's 
playing them- (what notes he's hitting open, etc. etc.)open to suggestions.

feel free to comment with suggestions. oh and also with the solo if you 
for some reason have the energy/desire to want and figure that out....


e|--------0~---0-------------------------------------------------------------|
B|-(7)(5)-0~---0-------------------------------------------------------------|
G|--7--5--0~---0-------------------------------------------------------------|
D|--0--0--2~---2--------(0)-5p0----------------------------------------------|
A|--X--X--2~---2-----0h2p0-----5/7-------------------------------------------|
E|--7--5--0~---0-------------------------------------------------------------|


                
e|---------------------------------------------------------------------------|
B|---------------------------------------------------------------------------|
G|---------------------------------------------------------------------------|
D|------0-----------(0)-5p0---------0-------------(0)-5p0--------------------|
A|--0h2----------0h2p0-----5/7--0h2---------2--0h2p0-----5/7-----------------|
E|--------5-5b~-----------------------5b6r5-0--------------------------------|


chorus 
e|------------0--------------------------------------------------------------|
B|-(7)--(5)---0--------------------------------------------------------------|
G|--7----5----0--------------------------------------------------------------|
D|--0----0----2--------------------------------------------------------------|
A|--X----X----2--------------------------------------------------------------|
E|--7----5----0--------------------------------------------------------------|


breakdown (most badass part, wicked fun riff)

e|-----------------------------------------------------------(0-0-0-0-0)-----|
B|------------------(3-3)-(1-1-1-1-1)------------------------(0-0-0-0-0)-----|
G|---0---2-0---0---------------------------------------(0)(0)(0-0-0-0-0)-----|
D|-2---2-----2---2-0-4-4---2-2-2-2-2------0---2-0---0---0--0-(2-2-2-2-2)-----|
A|-------------------2-2---0-0-0-0-0----2---2-----2---2-x--x--2-2-2-2-2------|
E|------------------------------------------------------3--3--0-0-0-0-0------|


then the harmony lead lines

e|---------------------------------------------------------------------------|
B|---3---5-3---3-------------------------------------------------------------|
G|-4---4-----4---4-2--------------------2---4-2---2--------------------------|
D|------------------------------------4---4-----4---4-2----------------------|
A|---------------------------------------------------------------------------|
E|---------------------------------------------------------------------------|



word.
************************************

| /   slide up
| \   slide down
| h   hammer-on
| p   pull-off
| ~   vibrato
| +   harmonic
| x   Mute note
| b   Bend
| pb  Pre-bend
| br  Bend release
| pbr Pre-bend release
| brb Bend release bend

************************************
Добавлено: 09.11.2013
Другие материалы по этой песне:
  • Аккорды и текст

Страница создана 09.11.2013
http://primanota.ru/mars-volta/molochwalker-chords.htm
Привет, Гость.
Предлагаем пройти революционный курс по гитаре.
Подарок от PrimaNota.Ru, забирай!