PrimaNota.ru - самый крупный в мире бесплатный архив песенных текстов, аккордов, табулатур и нот


Mars Volta - Asilos Magdalena - текст песни, таба, видео

Регистрация Запомнить меня
Войти через:  Facebook Google Twitter Vk Yandex Mail.ru

Mars Volta - Asilos Magdalena - текст песни, таба, видео

Печатать
Просмотров: 576
Уроки эстрадного вокала в Санкт-Петербурге
Asilos Magdalena

verse
e:-\------7-----7----7--------------3-------------------------------------|
b:-\------6-----6----6------3-----2-2-------2-----2---2-------6-------6---|
g:-\----7-----7-----------2-----3-----3---0-0---0-0---0-----0-------0-----|
D:-\--0-----0------0----3-----3---------2-----2-----2---2\7-----7-5-----5-|
A:-\----------------------------------------------------------------------|
E:-\----------------------------------------------------------------------|

bridge 1
e:-------------------------|
b:-------8-----------10----|
g:-----7----------10-------|
D:-5\8-----8-8\11-------11-|
A:-------------------------|
E:-------------------------|

chorus
e:-12-------|10-------|-8----------|-6-------|-6------6-|-3-------|-5----------|
b:--------0-|---------|------------|---------|----------|---------|------------|
g:----------|-----7---|------9-----|---------|----------|-----3---|------------|
D:-0--------|---7-----|----8-------|-----7---|-----7----|---2---2-|-----7-7/---|
A:-----12---|8------8-|-10-----10/-|---5---5-|---5------|---------|---7--------|
E:---13-----|---------|------------|-6-------|-6------6-|-3-------|-5----------|

e:-1-------|-3-----3-|-----------------------------------------|
b:---------|---------|-2-----2(pick note harder than the rest)-|
g:-----2---|-----3---|-----2-----------------------------------|
D:---0---0-|---2-----|---2-------------------------------------|
A:---------|---------|-0---------------------------------------|
E:-1-------|-3-----3-|-----------------------------------------|

bridge 2
e:-1--1-1-1-1-0-----|-0-|-3--3-3-3-------|-----------------|----------------|
b:-3------------3---|-2-|-3--------6-5-6-|-6-6-6-5-3--3\5~-|-2------2-------|
g:-2--------------2-|-0-|-3--------------|-----------------|-2-2h3--2-2h3-2-|
D:-0----------------|-2-|-5--------------|-----------------|---2h3----2h3-2-|
A:------------------|-0-|----------------|-----------------|----------------|
E:------------------|---|----------------|-----------------|----------------|

Song Structure
Verse(4x)
Bridge 1
Chorus(2x)
Bridge 2
Verse(4x)
Bridge 1
Chorus(2x)
Bridge 2 (different timing)
Verse throughout rest of song
Добавлено: 23.08.2013
Другие материалы по этой песне:
  • Аккорды и текст

Страница создана 23.08.2013
http://primanota.ru/mars-volta/asilos-magdalena-chords.htm
Привет, Гость.
Предлагаем пройти революционный курс по гитаре.
Подарок от PrimaNota.Ru, забирай!