PrimaNota.ru - самый крупный в мире бесплатный архив песенных текстов, аккордов, табулатур и нот


Mars Volta - Trinkets Pale Of Moon - таба, видео

Регистрация Запомнить меня
Войти через:  Facebook Google Twitter Vk Yandex Mail.ru

Mars Volta - Trinkets Pale Of Moon - таба, видео

Печатать
Просмотров: 80
Авторы музыки: Omar Rodriguez‐Lopez
Авторы текста: Cedric Bixler‐Zavala
-------------------------------------------------------------------------------
                           TRINKETS PALE OF MOON - The Mars Volta
-------------------------------------------------------------------------------

Tabbed by: Steven Dubuque
Email: sdubuque43@gmail.com

Tuning: EADGBE

VERSE

e|-2-------2-------2-------0-----1-----1-------1-------0------------------|
B|-----0-------0-------0------0-----0------0-------0-------0--------------|
G|------------------------------------------------------------------------|
D|------------------------------------------------------------------------|
A|-2-2---2---2---2---2---2---2--------------------------------------------|
E|-------------------------------3-3--3--3---3---3---3---3----------------|



e|-2-----2-------2-------0-----1-------1-------1-------0------------------|
B|----0------0-------0-------0-----0-------0-------0-------3--------------|
G|------------------------------------------------------------------------|
D|---------------------2---0----------------------------------------------|
A|-2-2--2--2---2---2------------------------------------------------------|
E|-----------------------------3-3---3---3---3---3---3---0----------------|



e|-4-------4-------4-------4---0--0-------0-------0-------0---------------|
B|-----0-------0-------0---------------------------------------0----------|
G|------------------------------------0-------0-------0-------------------|
D|------------------------------------------------------------------------|
A|-4-4---4---4---4---4---4---4-0--1-1---1---1---1---1---1---1-------------|
E|------------------------------------------------------------------------|


e|-4-------4-------4-------4---0--0-------0------(0)----------------------|
B|-----0-------0-------0--------------------------------------------------|
G|------------------------------------0------0----------------------------|
D|------------------------------------------------------------------------|
A|-4-4---4---4---4---4---4---4-0--1-1---1--1---1--------------------------|
E|------------------------------------------------------------------------|


CHORUS - 1:28

e|-------7-------7------7------5---3---6------7-------7-------5-----------|
B|-10-8------0------0-------0-------------0-------0-------0-------8-------|
G|------------------------------------------------------------------------|
D|------------------------------------------------------------------------|
A|---------7---7---7--7---7----3--(3)--6-6---6---6---6---6---6---6--------|
E|-8--8--0----------------------------------------------------------------|


e|-3-------2------0---------0--6-------5----------------------------------|
B|-----0------0-------0---3--------0-----------8--------------------------|
G|----------------2-------0----------------0------------------------------|
D|------------------------------------------------------------------------|
A|-3-3---3--3---3---3---3------6-6---6---6---6----------------------------|
E|------------------------------------------------------------------------|


END - 3:24

e|------------------------------------------------------------------------|
B|-3------3-------3------------2-------2-------2--------------------------|
G|----0-------0-------0------0-----0-------0-------0----3--0--------------|
D|------------------------/8----------------------------------------------|
A|------------------------------------------------------------------------|
E|-3-3--3---3---3---3---3------2-2---2---2---2---2---2--------------------|


e|------------------------------------------------------------------------|
B|-3------3-------3------3-5---2-------2-------2--------------------------|
G|----0-------0-------0--0---------0-------0-------0----3--0--------------|
D|------------------------------------------------------------------------|
A|------------------------------------------------------------------------|
E|-3-3--3---3---3---3----3-5---2-2---2---2---2---2---2--------------------|


e|------------------------------------------------------------------------|
B|-3------3-------3------------2-------2-------2--------------------------|
G|----0-------0-------0------0-----0-------0-------0----3--0--------------|
D|------------------------/8----------------------------------------------|
A|------------------------------------------------------------------------|
E|-3-3--3---3---3---3---3------2-2---2---2---2---2---2--------------------|


3:45

e|------------------------------------------------------------------------|
B|------------------------------------------------------------------------|
G|-3-----3------3-------3--5--2------2-------2-------3---0----------------|
D|----0------0------0-------------0------0-------0------------------------|
A|------------------------------------------------------------------------|
E|-3-3--3--3---3--3---3-3-3---2-2---2--2---2---2---2---2------------------|



************************************

| /   slide up
| \   slide down
| h   hammer-on
| p   pull-off
| ~   vibrato
| +   harmonic
| x   Mute note
| b   Bend
| pb  Pre-bend
| br  Bend release
| pbr Pre-bend release
| brb Bend release bend

************************************
Добавлено: 24.09.2013
Другие материалы по этой песне:
  • Аккорды и текст

Страница создана 24.09.2013
http://primanota.ru/mars-volta/trinkets-pale-of-moon-chords.htm
Привет, Гость.
Предлагаем пройти революционный курс по гитаре.
Подарок от PrimaNota.Ru, забирай!