PrimaNota.ru - самый крупный в мире бесплатный архив песенных текстов, аккордов, табулатур и нот


Mars Volta - Agadez - текст песни, бас-таба, видео

Регистрация Запомнить меня
Войти через:  Facebook Google Twitter Vk Yandex Mail.ru

Mars Volta - Agadez - текст песни, бас-таба, видео

Печатать
Просмотров: 157
Уроки эстрадного вокала в Санкт-Петербурге
-------------------------------------------------------------------------------
			     Agadez (Bass tab) - The Mars Volta
-------------------------------------------------------------------------------

Tabbed By : Wallnut


Tuning:EADG
First off, I realize that most of the second half of my tab is hard to understand, but i 
tried to use symbols instead of writing "32 dotted"
in the rhythm section. If anyone has any better way of writing it, please leave a comment
(or if anyone has a better idea of that time signature)
At the end of the day, its Mars Volta, so you should expect complicated!

(Rhythm is shown at the top of each stave.)
(R = Rest)

Verse (0:10 - 1:10)
4/4
     8 8  8  4   4   8    4---(4.)    8 8 8
G||---------------------|---------------------|
D||o--------------------|---------------------|
A||o-0----14-15--14-----|-----------------2---|
E||----17------------17-|-14------\---3-5-----|

   4.   4.   4     8 8 8 4   8 4   x6
G|---------------|-----------------||
D|------5--------|-----4-5---4----o||
A|-3---------3---|-2-3---------5--o||
E|---------------|-----------------||


Chorus (1:11 - 1:31)

   8 8 8 8 8 8 8 8   4   2.          8 8 8 8 8 8 8 8   4   4   4   4
G|-----------------|---------------|-----------------|-----------------|
D|-----------------|---------------|-----------------|-----------------|
A|-----------------|---------------|-3-3-3-3-3-3-3-3-|-2---2---2---2---|
E|-5-5-5-5-5-5-5-5-|-2---2---------|-----------------|-----------------|


   8 8 8 8 8 8 8 8   4   2.          8 8 8 8 8 8 8 8   2.          4
G|-----------------|---------------|-----------------|-----------------|
D|-----------------|---------------|-----------------|-----------------|
A|-----------------|---------------|-3-3-3-3-3-3-3-3-|-2-----------R---|
E|-5-5-5-5-5-5-5-5-|-2---2---------|-----------------|-----------------|


Verse

Chorus  (x2)

Interlude (3:12 - 3:43)
I may have overcomplicated this bit, but it fits...

  3/8
   4.
G|-----|
D|-----|
A|-R---|
E|-----|

  21/16                          4/2
 (! = 32.)
 ($ = 32)
     !!!!!!!!8 !!8 !!!8 !$  4     1               1             x4
G||-----------------------------|-------------------------------||
D||o----------------------------|------------------------------o||
A||o---------R---R----R-----R---|------------------------------o||
E||--55555555--55--555--55------|-5-----------------------------||


Riff 2 (3:43 - 5:14

4/4
   (All 8th triplets)        x28
G||-------5------------------||
D||-----7---7-5-------------o||
A||---7---------8-7-5-------o||
E||-5-----------------8-7-3--||

Outro (5:15 - Fade out)

(^ = 16th)

     4/4              9/8
   ^^^^^^^^^^^8 8 ^   ^^^^^^^^^^^^^8 8 ^
G|------------------|--------------------|
D|------------------|--------R---------R-|
A|--------R-------R-|-3333333-222222-2---|
E|-5555555-2222-2---|--------------------|

Repeat till fade out has ended


| R  Rest
| /  slide up
| \  slide down
| h  hammer-on
| p  pull-off
| ~  vibrato
| +  harmonic
| x  Mute note
===============================================================================
Добавлено: 19.08.2013
Вам также может быть интересно:
Другие материалы по этой песне:
  • Аккорды и текст

Страница создана 19.08.2013
http://primanota.ru/mars-volta/agadez-chords.htm
Привет, Гость.
Предлагаем пройти революционный курс по гитаре.
Подарок от PrimaNota.Ru, забирай!