PrimaNota.ru - самый крупный в мире бесплатный архив песенных текстов, аккордов, табулатур и нот


Mars Volta - Conjugal Burns - текст песни, таба, бас-таба, видео

Регистрация Запомнить меня
Войти через:  Facebook Google Twitter Vk Yandex Mail.ru

Mars Volta - Conjugal Burns - текст песни, таба, бас-таба, видео

Печатать
Просмотров: 90
Feeling down in the dumps because you're a deranged alien in an intergalactic time capsule
who just shattered the space time continuum by smacking a velociraptor with your wah pedal?

Well cheer up because this song is exactly the same!


Standard

  Gtr I
                          random guitar noises in this general zone
|-12-----------------------12-13-15---------------------------------------------12--------|
|----13-15----15--------------------13-15------------------------------------------13-15--|
|----------15----14-15--------------------12-14-15----------------------------------------|
|--------------------------------------------------12-14-15-------------------------------|
|-----------------------------------------------------------12-13-15----------------------|
|--------------------------------------------------------------------12-13-15-------------|

(visit turns conjugal)

|-------------------------------------|
|-------------------------------------|
|-15-------------14-13------12-14-----|
|------12--14-15--------15---------12-|  not much guitar, random stuff
|-------------------------------------|
|-------------------------------------|

                                        just so you know... too many reeyeeheeeeasons yeeahahhoow
|--------------------------------------12--------10--15------------------------------------------|
|-----------------------------------------13-15--11--17------------------------------------------|
|-14-12----14-15-12-14----14---------------------12--16---13-/14-13----12----12-13-/14-13----12--|
|-------15-------------15----14-15-14------------12-----------------15----15--------------15-----|
|------------------------------------------------------------------------------------------------|
|------------------------------------------------------------------------------------------------|

too many ree.
x 14 ?
           Rapid t-picking
|-15---------------------------------------------------------|
|-15------13/15-13/15----------------------------------------|
|-15------------------12/14-12/14-10/12-10/12-12/14-12/14----|
|-17---------------------------------------------------------| x 4
|------------------------------------------------------------|
|------------------------------------------------------------|


|------------------------|
|-15-13----------13------|
|-------14-12-14----12---|
|------------------------|
|------------------------|
|------------------------|

Chorus, add octave effect or something else or not:

|----------------------------------------------------------------------------|
|----------------------------------------------------------------------------|
|------9--8------8-------9-8----8----------9--8---8----------9-8----8-9-11-8-|
|-----------9-11-------------11-----------------9---11-----------11----------|
|-9-11--------------9-11----------11--9-11--------------9-11-----------------|
|----------------------------------------------------------------------------|


verse random? again...                                        RTP again break
        |-------------------------------------------------------------------------------------------|
        |-16-17-14-16----16-17-14-16----------------------------------------------------------------|
        |-------------13-------------13--16-14-13-14-13-11-9----------------------------------------|
        |-----------------------------------------------------9/11-9/11-----------------------------|
        |---------------------------------------------------------------9/11-9/11-7/9-7/9-/10-9-7---|
        |-----------------------------------------------------------------------------------------9-|


  break Gtr 2
|-/16-/16-/14-/14-/12-/12--/20-19-15-12--/21-/21-/19-/19-/14-/14-16----|
|----------------------------------------------------------------------|
|----------------------------------------------------------------------|
|----------------------------------------------------------------------|
|----------------------------------------------------------------------|
|----------------------------------------------------------------------|


|--------------------------------------------------------------------|
|--------------------------------------------------------------------|
|--------------------------------------------------------------------|
|-11----9-11-9------------------------------9-11-9-------------------| x 2
|----11--------11-9-11-9-11-12-11-9------11--------11-9---------(9)--|
|-----------------------------------12-9----------------9-11-12------|


CHORUS AGAIN


|--------------------------------|
|------9-10-9-12-12-14----9------|
|-11-9-----------------11---11-9-|
|--------------------------------|
|--------------------------------|
|--------------------------------|

(noises/hiccuping)

|------------------------|
|-15-13----------13------|
|-------14-12-14----12---|
|------------------------| CHORUS AGAIN
|------------------------|
|------------------------|

  RTP
|------------------------------------------------|
|------------------------------------------------|
|------------------------------------------------|
|-9/11-9/11--------------------------------------| x 2
|-----------9/11--9/11-7/9-7/9--/10-9-------9----|
|-------------------------------------11-12------|
Добавлено: 23.09.2013
Другие материалы по этой песне:
  • Аккорды и текст

Страница создана 21.08.2013
http://primanota.ru/mars-volta/conjugal-burns-chords.htm
Привет, Гость.
Предлагаем пройти революционный курс по гитаре.
Подарок от PrimaNota.Ru, забирай!