PrimaNota.ru - самый крупный в мире бесплатный архив песенных текстов, аккордов, табулатур и нот


Marmozets - Why Do You Hate Me - таба, бас-таба, видео

Регистрация Запомнить меня
Войти через:  Facebook Google Twitter Vk Yandex Mail.ru

Marmozets - Why Do You Hate Me - таба, бас-таба, видео

Печатать
Просмотров: 474
----------------------------------------------------------------------------------------------------
                                   Why Do You Hate Me? - Marmozets
----------------------------------------------------------------------------------------------------
Tabbed by: katie
E-mail: katie.broady@gmail.com

Tuning: C G C F A D

d|---------------------------------------------------------|        d|-8-10-11-10-8--|
A|--------------------------------8-10-11-10-8---6-8-6-8---|        A|---------------|
F|-5-7-8-7-5---5-7-8---------------------------------------|        F|---------------|
C|-------------------5-7-8-7-5-----------------------------|        C|---------------|
G|---------------------------------------------------------|        G|---------------|
C|---------------------------------------------------------| X2     C|---------------|
                                                                      (Why do you hate me?)

d|--------------------------------------------------------------------------------------------|
A|--------------------------------------------------------------------------------------------|
F|---5-7-5-7-8-7-8-10-8-10/12----------------------------8------------------------------8-----|
C|-8-------------------------------7-8---------8-10-8-10---10-8-10--7-8-------8-10-8-10---10--|
G|---------------------------------------5-6----------------------------5-6-------------------|
C|--------------------------------------------------------------------------------------------|

d|--------------------------------------------------------------------------------|
A|--------------------------------------------------------------------------------|
F|-----5-7------------------8-----------5-7------------------8--------------------|
C|-7-8------8-10--8-10-8-10---10----7-8------8-10--8-10-8-10---10--10(x8)-10(x7b)-|
G|--------------------------------------------------------------------------------|
C|--------------------------------------------------------------------------------|

d|------------------------------------------------------------------------------------------------------------|
A|------------------------------------------------------------------------------------------------------------|
F|------------------------------------------------------------------------------------------------------------|
C|-----------------------------8--------------------------------------11--------------------------------------|
G|-8-10-10--8-10-10--8-10-8-10----10-10---8-10-10--8-10-10--8-10-8-10----10-10--8-10-10--8-10-10--8-10-8--5~--|
C|------------------------------------------------------------------------------------------------------------|
   (Take my money...)

d|-----------------------|
A|-----------------------|
F|-33333333---55555555---|
C|-33333333---55555555---|                                        (^< repeat both parts)
G|-11111111---33333333---|
C|-----------------------|
   (Daylight robbery...)

d|----------------------------------------------------------------------------------------|
A|----------------------------------------------------------------------------------------|
F|----------------------------------------------------------------------------------------|
C|----------------------------------------------------------------------------------------|
G|----------------------------------------------------------------------------------------|
C|-5555555--101010-8-888-0-11111111-101010-88--3-4-55555555-101010-888-0-11111111-00000---|
  (Oh boy here we go again..)

d|--------11-----------11-11-10-10-8----8-----8-8-----8------11-11-10-10-8------|
A|-8(x16)----11-11--11---------------11---8-8-----8-8---11~----------------11-8-|
F|------------------------------------------------------------------------------|
C|------------------------------------------------------------------------------|
G|------------------------------------------------------------------------------|
C|------------------------------------------------------------------------------|
  (Why do you hate me so much?...)

d|------------------------------------------------------------------------------------------------------------|
A|------------------------------------------------------------------------------------------------------------|
F|------------------------------------------------------------------------------------------------------------|
C|-----------------------------8--------------------------------------11--------------------------------------|
G|-8-10-10--8-10-10--8-10-8-10----10-10---8-10-10--8-10-10--8-10-8-10----10-10--8-10-10--8-10-10--8-10-8--5~--|
C|------------------------------------------------------------------------------------------------------------|
   (Take my legs and tongue...)

d|-----------------------|
A|-----------------------|
F|-33333333---55555555---|
C|-33333333---55555555---|                                        (^< repeat both parts)
G|-11111111---33333333---|
C|-----------------------|
   (Daylight robbery...)


d|--------11-----------11-11-10-10-8----8-----8-8-----8------11-11-10-10-8------|
A|-8(x16)----11-11--11---------------11---8-8-----8-8---11~----------------11-8-|
F|------------------------------------------------------------------------------|
C|------------------------------------------------------------------------------|
G|------------------------------------------------------------------------------|
C|------------------------------------------------------------------------------| x2
  (Why do you hate me so much?...)
                                                            

d|------------|          d|-8-10-11-10-8--| d|------------------------------------------|
A|------------|          A|---------------| A|-----------------8-10-11-10-8---6-8-6-8---|   
F|------------|          F|---------------| F|-5-7-8------------------------------------| 
C|-5-7-8-7-5--|          C|---------------| C|-------5-7-8-7-5--------------------------| 
G|------------|          G|---------------| G|------------------------------------------|
C|------------| x8       C|---------------| C|------------------------------------------|


d|---------------------------------------------------------|        
A|--------------------------------8-10-11-10-8---6-8-6-8---|        
F|-5-7-8-7-5---5-7-8---------------------------------------|       
C|-------------------5-7-8-7-5-----------------------------|       
G|---------------------------------------------------------|        
C|---------------------------------------------------------|     
                                                                      

d|--------11-----------11-11-10-10-8----8-----8-8-----8------11-11-10-10-8------|
A|-8(x16)----11-11--11---------------11---8-8-----8-8---11~----------------11---|
F|------------------------------------------------------------------------------|
C|------------------------------------------------------------------------------|
G|------------------------------------------------------------------------------|
C|------------------------------------------------------------------------------| x2
  (Why do you hate me so much?...)          

d|------------|      d|--------|      d|--------------|  
A|------------|      A|--------|      A|--------------|  
F|------------|      F|--------|      F|--------------| 
C|-5-7-8-7-5--|      C|-5-7-8--|      C|-5-7-8-7-5\---|
G|-5-7-8-7-5--|      G|-5-7-8--|      G|-5-7-8-7-5\---|  
C|-5-7-8-7-5--| x2   C|-5-7-8--| x8   C|-5-7-8-7-5\---| 
  (Every little word you say...)

I'm pretty sure this is correct but please email me is you have any corrections 
('daylight robbery' doesn't sound perfect, but it's the best I could do).


************************************

| /   slide up
| \   slide down
| h   hammer-on
| p   pull-off
| ~   vibrato
| +   harmonic
| x   Mute note
| b   Bend
| pb  Pre-bend
| br  Bend release
| pbr Pre-bend release
| brb Bend release bend

************************************
Добавлено: 08.10.2015
Другие материалы по этой песне:

Страница создана 28.07.2014
http://primanota.ru/marmozets/why-do-you-hate-me-chords.htm
Привет, Гость.
Предлагаем пройти революционный курс по гитаре.
Подарок от PrimaNota.Ru, забирай!