PrimaNota.ru - самый крупный в мире бесплатный архив песенных текстов, аккордов, табулатур и нот


Marmozets - Collisions - таба, видео

Регистрация Запомнить меня
Войти через:  Facebook Google Twitter Vk Yandex Mail.ru

Marmozets - Collisions - таба, видео

Печатать
Просмотров: 142
Tabbed by Sam Hughes,
I spoke to Jack (one of the guitarists) so this should be 100% correct.


 | All Down Strums|                 | All Down Strums|Down Strum then Slide
D|----------------|-----------------|----------------|-3\-|
A|----------------|-----------------|----------------|-4\-|
F|----5-5-----5-5-|-----------------|----5-5-----5-5-|-5\-|
C|-0--3-3--0--3-3-|-6p3p0-----------|-0--3-3--0--3-3-|-3\-|
G|-0--3-3--0--3-3-|------6p3p0------|-0--3-3--0--3-3-|----|
C|-0--x-x--0--x-x-|-----------6p3p0-|-0--x-x--0--x-x-|----|


 |All Down Strums |                 | All Down Strums|Down Strum, Slide then Up Strum
D|----------------|-----------------|----------------|-3\10-|
A|----------------|-----------------|----------------|-4\8--|
F|----5-5-----5-5-|-----------------|----5-5-----5-5-|-5\9--|
C|-0--3-3--0--3-3-|-6p3p0-----------|-0--3-3--0--3-3-|-3\7--|
G|-0--3-3--0--3-3-|------6p3p0------|-0--3-3--0--3-3-|------|
C|-0--x-x--0--x-x-|-----------6p3p0-|-0--x-x--0--x-x-|------|


 |All Down Strums |                               | All Down Strums|Down Strum then Slide
D|----------------|-------------------------------|----------------|-3\-|
A|----------------|-------------------------------|----------------|-4\-|
F|----5-5-----5-5-|-------------------------------|----5-5-----5-5-|-5\-|
C|-0--3-3--0--3-3-|-6p3p0-------------------0h3h6-|-0--3-3--0--3-3-|-3\-|
G|-0--3-3--0--3-3-|------6p3p0---------0h3h6------|-0--3-3--0--3-3-|----|
C|-0--x-x--0--x-x-|-----------6p3p0h3h6-----------|-0--x-x--0--x-x-|----|


 | All Down Strums|                 | All Down Strums|Down Strum then Slide
D|----------------|-----------------|----------------|-3\-|
A|----------------|-----------------|----------------|-4\-|
F|----5-5-----5-5-|-----------------|----5-5-----5-5-|-5\-|
C|-0--3-3--0--3-3-|-6p3p0-----------|-0--3-3--0--3-3-|-3\-|
G|-0--3-3--0--3-3-|------6p3p0------|-0--3-3--0--3-3-|----|
C|-0--x-x--0--x-x-|-----------6p3p0-|-0--x-x--0--x-x-|----|
Добавлено: 11.08.2015
Вам также может быть интересно:
Другие материалы по этой песне:
  • Аккорды и текст

Страница создана 11.08.2015
http://primanota.ru/marmozets/collisions-chords.htm
Привет, Гость.
Предлагаем пройти революционный курс по гитаре.
Подарок от PrimaNota.Ru, забирай!