PrimaNota.ru - самый крупный в мире бесплатный архив песенных текстов, аккордов, табулатур и нот


Marilyn Manson - Valentines Day - аккорды и текст, таба, бас-таба, драм-таба, видео

Регистрация Запомнить меня
Войти через:  Facebook Google Twitter Vk Yandex Mail.ru

Marilyn Manson - Valentines Day - аккорды и текст, таба, бас-таба, драм-таба, видео

Печатать
Просмотров: 369
Valentines Day
Marilyn Manson
"Files are waiting..."
--------------------------------------------------------------------
--------------------------------------------------------------------
--------------------------------------------------------------------
--10-12-13-6--------------------------------------------------------
--------------------------------------------------------------------
--------------------------------------------------------------------

"In the shadow of the valley of death"
--------------------------------------------------------------------
--------------------------------------------------------------------
--------------------------------------------------------------------
--3-----6--5--3----6--5--3-X-X-X------------------------------------
--3-----6--5--3----6--5--3-X-X-X------------------------------------
--1-----4--3--1----4--3--1-X-X-X------------------------------------

"This little..."
--------------------------------------------------------------------
--------------------------------------------------------------------
----6---------------------------------------------------------------
--8-6------3....----------------------------------------------------
--8-4------3....----------------------------------------------------
--6--------1....----------------------------------------------------
Добавлено: 05.02.2014
Другие материалы по этой песне:

Страница создана 23.02.2012
http://primanota.ru/marilyn-manson/valentines-day-chords.htm
Привет, Гость.
Предлагаем пройти революционный курс по гитаре.
Подарок от PrimaNota.Ru, забирай!