PrimaNota.ru - самый крупный в мире бесплатный архив песенных текстов, аккордов, табулатур и нот


Marilyn Manson - Slave Only Dreams To Be King - таба, бас-таба, видео

Регистрация Запомнить меня
Войти через:  Facebook Google Twitter Vk Yandex Mail.ru

Marilyn Manson - Slave Only Dreams To Be King - таба, бас-таба, видео

Печатать
Просмотров: 206
Slave Only Dreams To Be King

Tuning: eBGDAB

Video Lesson: https://www.youtube.com/watch?v=wM0MgaSoges

Verse

Guitar
e||-------------|
B||-------------|
G||-------------|
D||-x-x-x---x-x-|
A||-x-x-x---x-x-|
B||-x-x-x---x-x-| 6x

Bass
e||-------------|
B||-------------|
G||-------------|
D||-------------|
A||-------------|
B||-------0-----| 6x

Rest of the song

Guitar
e||-------------|
B||-------------|
G||-------------|
D||-x-x-x---x-x-|
A||-x-x-x---x-x-|
B||-x-x-x-0-x-x-|

Bass
e||-------------|
B||-------------|
G||-------------|
D||-------------|
A||-------------|
B||-------0-----|

Guitar 2 (Distortion + Fuzz + Octaver + Pitch Shift + EQ)
e||---------------------------------|
B||---------------------------------|
G||-7-7-11-11-10-10-9-9-9-9-7-7-7---|
D||---------------------------------|
A||---------------------------------|
B||---------------------------------|

e||---------------------------------|
B||---------------------------------|
G||-7-7-11-11-10-10-9-9-7-7-7-7-7/0-|
D||---------------------------------|
A||---------------------------------|
B||---------------------------------|

Chorus 1

Guitar 1
e||-------------------|
B||-------------------|
G||-------------------|
D||-------------------|
A||-------------------|
B||-0--0--2-0--2-0--3-| 2x

Chorus 2

e||-----------------------------------------------------|
B||-----------------------------------------------------|
G||-----------------------------------------------------|
D||-----------------------------------------------------|
A||-----------------------------------------------------|
B||-3-3-3-3-7-7-7-7-5-5-5-5-3-3-3-3-8--8--8--8--1-1-1-1-|

e||-------------------|
B||-------------------|
G||-------------------|
D||-------------------|
A||-------------------|
B||-0--0--2-0--2-0--3-| 2x

e||-----------------------------|
B||-----------------------------|
G||-----------------------------|
D||---/9----/7---/5--4--4-4-0---|
A||-2-----0-------------------4-|
B||------------8----------------|
Добавлено: 07.06.2015
Другие материалы по этой песне:
  • Аккорды и текст

Страница создана 07.06.2015
http://primanota.ru/marilyn-manson/slave-only-dreams-to-be-king-chords.htm
Привет, Гость.
Предлагаем пройти революционный курс по гитаре.
Подарок от PrimaNota.Ru, забирай!