PrimaNota.ru - самый крупный в мире бесплатный архив песенных текстов, аккордов, табулатур и нот


Marilyn Manson - Come Together - текст песни, таба, видео

Регистрация Запомнить меня
Войти через:  Facebook Google Twitter Vk Yandex Mail.ru

Marilyn Manson - Come Together - текст песни, таба, видео

Печатать
Просмотров: 217
Авторы: John Lennon, Paul McCartney

Song: Come Together
Artist: Marilyn Manson
Album: From Highway to Hell
As tabbed by Joe Muggah

Bass Verse
G------------------10----7--------------------10----7----
D--0---0-----2/7--------------0---0----2/7---------------
A--------------------------------------------------------
E--------------------------------------------------------

Bass Pre-Chorus             end on
G-----------------------------|--------------------------
D------------------10----7----|--------------------------
A--0---0----2/7---------------|--------------------------
E-----------------------------|--3------/15--------------

Riff
e----------|---------------------10^--\----4---4---4---4-
B----------|--3^----3^----3^-----------------------------
G----------|---------------------------------------------
D----------|---------------------------------------------
A--12^--\--|---------------------------------------------
E----------|---------------------------------------------

(continued)
e--10---\4---4---4---10m--10m--4m--4m------------------9-
B------------------------------------------------------8-
G--------------------------------------------------------
D--------------------------------------------------------
A--------------------------------------/12^--\--/12^\----
E--------------------------------------------------------

Bass Verse
Bass Pre-Chorus
Bass Verse, Riff
Bass Pre-Chorus, Riff

Manson only did the first bit to this Beatles classic live
and doesn't really have much guitar at all. He also did
Strawberry Fields live without any instruments.
     
Добавлено: 22.07.2013
Другие материалы по этой песне:
  • Аккорды и текст

Страница создана 30.03.2012
http://primanota.ru/marilyn-manson/come-together-chords.htm
Привет, Гость.
Предлагаем пройти революционный курс по гитаре.
Подарок от PrimaNota.Ru, забирай!