PrimaNota.ru - самый крупный в мире бесплатный архив песенных текстов, аккордов, табулатур и нот


Machine Head - The Blood ,the Sweat Tears - таба, видео

Регистрация Запомнить меня
Войти через:  Facebook Google Twitter Vk Yandex Mail.ru

Machine Head - The Blood ,the Sweat Tears - таба, видео

Печатать
Просмотров: 95
Уроки эстрадного вокала в Санкт-Петербурге
  Artist: Machine Head
   Song: The Blood, The Sweat, The Tears
  Album: The Burning Red
 Tuning: Drop-D (DADGBE)
 Tab by: The New Bush killer (www.bushkillersince1991@wanadoo.fr)

 ----------------
  / = slide up
  \ = slide down
  h = hammer on
  p = pull off
  b = bend (full)
  ~ = vibrato
 ----------------


Intro
E|-------------------------------|
B|-------------------------------|
G|-------------------------------|
D|-0-----------------------------|
A|-0-----------------------12\---|
D|-0-----------------------12\---|
 |  let ring long time then
 | Guitar 2:
E|-------------------------------|
B|-------------------------------|
G|-------------------------------|
D|-0-----------------------------|
A|-0-------------------------12\-|
D|-0-------------------------12\-|


Chorus
E|----------------------------------------------------------------|
B|----------------------------------------------------------------|
G|----------------------------------------------------------------|
D|----------------------------------------------------------------|
A|------------------------------4-------------------------------6-|
D|-0-1-0--3-2-1--0-1-0--3-2-1---4--0-1-0--3-2-1--0-1-0--3-2-1---6-|


Verse 1
E|----------------------------------------------------------------|
B|----------------------------------------------------------------|
G|----------------------------------------------------------------|
D|-6--6--6--6-----------1-1-1-1-1-1-1-1-----------1-1-1-1-1-1-1-1-|
A|-6--6--6--6-----------1-1-1-1-1-1-1-1-----------1-1-1-1-1-1-1-1-|
D|-6--6--6--6-----------1-1-1-1-1-1-1-1-----------1-1-1-1-1-1-1-1-|
              drum only                 drum only

E|-----------------------------------------------------|
B|-----------------------------------------------------|
G|-----------------------------------------------------|
D|-----------1-1-1-1-1-1-1-1-----------1-1-1-1-1-1-1-1-|
A|-----------1-1-1-1-1-1-1-1-----------1-1-1-1-1-1-1-1-|
D|-----------1-1-1-1-1-1-1-1-----------1-1-1-1-1-1-1-1-|
 |  drum only                 drum only 
 |Guitar 2:    
E|-----------------------------------------------------|
B|-----------------------------------------------------|
G|-------------------------------------8-8-8-8-8-8-8-8-|
D|-----------------------------------------------------|
A|-------------------------------------6-6-6-6-6-6-6-6-|
D|-----------------------------------------------------|


Verse 2
E|-------------------------------------|
B|-------------------------------------|
G|-------5--------5----8-8-8-8-8-8-8-8-|
D|---1---5-0--1-0-5-0------------------|
A|-0-1-0-3-0--1-0-3-0--6-6-6-6-6-6-6-6-|
D|-0-1-0---0--1-0---0------------------|


Verse 3
E|------------------------------------------------------------------|
B|------------------------------------------------------------------|
G|------------------------------------------------------------------|
D|-5---------------5---------------1--------------1-----------------|
A|-5---------------5---------------1--------------1-----------------|
D|-5---------------5---------------1--------------1-----------------|
 |Guitar 2:                                                         |
E|------------------------------------------------------------------|
B|-8888888888888888888888888888888844444444444444444444444444444444-|
G|-7777777777777777777777777777777733333333333333333333333333333333-|
D|------------------------------------------------------------------|
A|------------------------------------------------------------------|
D|------------------------------------------------------------------|


Verse 4
E|------------------------------------------------------------------|
B|------------------------------------------------------------------|
G|------------------------------------------------------------------|
D|-5---------------5---------------1---------------1----------------|
A|-5---------------5---------------1---------------1----------------|
D|-5---------------5---------------1---------------1----------------|
 |Guitar 2:                                                         |
E|------------------------------------------------------------------|
B|-88888888888888888888888888888888---------------------------------|
G|-777777777777777777777777777777773---3-5---5-7---7-8--8-----------|
D|------------------------------------------------------------------|
A|---------------------------------1---1-3---3-5---5-6--6-----------|
D|------------------------------------------------------------------|


Bridge
 Guitar 1:                         Guitar 2:
E|-------------------------|       E|-------------------------|
B|-------------------------|       B|-------------------------|
G|-------5---------5-------|       G|-------5---------5-------|
D|---1---5-0---1-0-5-0-----|       D|---1---5-0---1-0-5-0--7b-|
A|-0-1-0-3-0---1-0-3-0--5b-|       A|-0-1-0-3-0---1-0-3-0-----|
D|-0-1-0---0---1-0---0-----|       D|-0-1-0---0---1-0---0-----|



Solo (with Bridge Guitar 1 along the solo)
E|---11--11--11--11--11-15-11--13-11-----11--11--11-11-
B|-15--15--15--15--15--------15-----15-15--15--15--15--
G|-----------------------------------------------------
D|-----------------------------------------------------
A|-----------------------------------------------------
D|-----------------------------------------------------


  --11-15-11--13-11-15-15b15b15b-15b15-13h15p13p12h13-12~-
  15--------15--------------------------------------------
  --------------------------------------------------------
  --------------------------------------------------------
  --------------------------------------------------------
  --------------------------------------------------------


  20b-20-18-20-18-17-18-17-15-17-13-15-13-11---------
  ------------------------------------------15-13-11-
  ---------------------------------------------------
  ---------------------------------------------------
  ---------------------------------------------------
  ---------------------------------------------------

  (here Guitar 1 play its verse 3)
  -------------------------------------------------------------|
  -------3h4~~~------------------------------------------------|
  12~~----------5b-5-3----3-5-5b5b5-3-3h5----------------------|
  --------------------5~-5------------------0-1-3-5-5-5-8-8-10-|
  -------------------------------------------------------------|
  -------------------------------------------------------------|


Verse 5
E|--------------------------------------------|
B|--------------------------------------------|
G|----------------------------8-8-8-8-8-8-8-8-|
D|--------------------------------------------|
A|----------------------------6-6-6-6-6-6-6-6-|
D|-0-1-0--3-2-1--0-1-0--3-2-1-----------------|


Verse 6
E|-------------------------------------|
B|-------------------------------------|
G|-------5--------5--------------------|
D|---1---5-0--1-0-5-0--1---1-1-1-1-1-1-|
A|-0-1-0-3-0--1-0-3-0--1-1-1-1-1-1-1-1-|
D|-0-1-0---0--1-0---0--1-1-1-1-1-1-1-1-|


Outro
E|--------------------|
B|--------------------|
G|-------5--------5---|
D|---1---5-0--1-0-5-0-|
A|-0-1-0-3-0--1-0-3-0-|
D|-0-1-0---0--1-0---0-|



 -------ORDER-------
 Intro   : 1X
 Chorus  : 2X (0:14)
 Verse 1 : 1X (0:27)
 Verse 2 : 4X (0:43)
 Verse 3 : 1X (0:57)
 Chorus  : 1X (1:03)
 Verse 3 : 1X (1:10)
 Chorus  : 2X (1:17)
 Verse 1 : 1X (1:30)
 Verse 2 : 4X (1:46)
 Verse 4 : 1X (2:00)
 Chorus  : 2X (2:07)
 Bridge  : 4X (2:21) -only Guitar 1 bridge-
 Bridge  : 4X (2:35) -twice Guitars whith their own bridge-
 Solo    : 1X (2:48)
 Verse 5 : 4X (3:29)
 Verse 6 : 3X (3:43)
 Outro   : 1X (3:53)
 -------------------

                                                ...PLAY LOUD...

Добавлено: 16.06.2013
Другие материалы по этой песне:
  • Аккорды и текст

Страница создана 16.06.2013
http://primanota.ru/machine-head/the-blood-the-sweat-tears-chords.htm
Привет, Гость.
Предлагаем пройти революционный курс по гитаре.
Подарок от PrimaNota.Ru, забирай!