PrimaNota.ru - самый крупный в мире бесплатный архив песенных текстов, аккордов, табулатур и нот


Machine Head - Damage Inside - таба, видео

Регистрация Запомнить меня
Войти через:  Facebook Google Twitter Vk Yandex Mail.ru

Machine Head - Damage Inside - таба, видео

Печатать
Просмотров: 551
Новый альбом группы 'Черный Кузнец' по культовому сериалу 'Сверхъестественное'!
Band:   Machine Head
Song:   Damage Inside
Album:  Bloodstone And Diamonds (2014)
Tuning: Drop C (C, G, C, F, A, D)

Machine Head don't play in Drop C precisely... They are tuned to
Drop C but then tuned up 40 cents sharper.


On a Korg tuner it would look something like this

Tuner:
50                           x  50#
|--|--|--|--|-[-C-]-|--|--|--|--|

The 'x' indicates where your tuning should be

Also comment, correct, and please, please rate!!!


Guitar 1:        Dave McClain
Guitar 2:        Phil Demmel

Tabbing Legend
Hammer on:          h
Pull off:           p
Slide up:           /
Slide down:         \
Natural Harmonic:   NH
Pinch Harmonic:     PH
Bend:               BU(?)
Whammy Bar Rise:    WBR
Whammy Bar Lower:   WBL
Whammy Bar Vibrato: WB~~~
Tremelo Pick:       Tr---
Tapped note:        T
Trill:              tr (rapid hammer on's and pull off's)
Muted note:         M
Palm Mute:          PM---
Killswitch:         K (can use bridge selector)
Quick bend:         ^
Pick Slide:         X\\\
Whammy Pedal:       +

____________________________________________________________________________


Verse
Guitar 1
|-----------------------------------------------------------------------|
|-----------------------------------------------------------------------|
|-----------------------------------------------------------------------|
|-----10-----10---10-----12\10-10\8-8\7-----7p5-5p3-3-------3p2-2p0-0---|
|---8------8-----------0------------------3---------------0-------------|
|-8------8------8----0------------------3---------------0---------------|

____________________________________________________________________________


Chorus
Guitar 1
|-----------------------------------------------------------------|
|-----------------------------------------------------------------|
|-----------------------------------------------------------------|
|-----------------------------------------------------------------|
|-5-----5---5-5---0-----0---0-0-------------------1-1-1-1-1-1-1---|
|---------------------------------3-----3---3-3-------------------|
|
|Guitar 2
|---------------------------------------------------------------------|
|-10-8-8-10BU(11)(10)-10---10-8-8-10BU(11)(10)-10---8h10-8---8h10-6---|
|---------------------------------------------------------------------|
|---------------------------------------------------------------------|
|---------------------------------------------------------------------|
|---------------------------------------------------------------------|

Guitar 2 (con't)
|------------------|
|-6h8-5/6-6/8-8/10-|
|------------------|
|------------------|
|------------------|
|------------------|

Guitar 1
|-----------------------------------------------------------------|
|-----------------------------------------------------------------|
|-----------------------------------------------------------------|
|-----------------------------------------------------------------|
|-5-----5---5-5---0-----0---0-0-------------------3-3-3-3-3-3-3---|
|---------------------------------3-----3---3-3-------------------|
|
|Guitar 2
|---------------------------------------------------------------------|
|-10-8-8-10BU(11)(10)-10---10-8-8-10BU(11)(10)-10---8h10-8---8h10-6---|
|---------------------------------------------------------------------|
|---------------------------------------------------------------------|
|---------------------------------------------------------------------|
|---------------------------------------------------------------------|

Guitar 2 (con't)
|------------------|
|-6h8-5/6-6/8-8/10-|
|------------------|
|------------------|
|------------------|
|------------------|

____________________________________________________________________________


Repeat Verse whilst guitar 2 plays:

Guitar 2
|---------------------------------------------------17----------17------|
|-13---------------13----------------17--------------------15------15---|
|-----15---------------14----------------14-----------------------------|
|-----------------------------------------------------------------------|
|-----------------------------------------------------------------------|
|-----------------------------------------------------------------------|

                                                         Gradual bend to G#
|---------------------------------------------------17---17-17-17-17-17-17-17-|
|-13---------------13----------------17---------------------------------------|
|-----15---------------14----------------14---------14---14-14-14-14-14-14-14-|
|-----------------------------------------------------------------------------|
|-----------------------------------------------------------------------------|
|-----------------------------------------------------------------------------|

____________________________________________________________________________


Repeat Chorus

____________________________________________________________________________


Outro
Guitar 1
|-------------------------------------------------------------------|
|-------------------------------------------------------------------|
|-------------------------------------------------------------------|
|-----10---------------12---------------7---------------3p2-2p0-0---|
|---8----------------0----------------3---------------0-------------|
|-8----------------0----------------3---------------0---------------|

____________________________________________________________________________

That's all guys, please rate :)
Добавлено: 04.09.2014
Другие материалы по этой песне:

Страница создана 04.09.2014
http://primanota.ru/machine-head/damage-inside-chords.htm
Привет, Гость.
Предлагаем пройти революционный курс по гитаре.
Подарок от PrimaNota.Ru, забирай!