PrimaNota.ru - самый крупный в мире бесплатный архив песенных текстов, аккордов, табулатур и нот


Machine Head - machine head - текст песни, видео

Регистрация Запомнить меня
Войти через:  Facebook Google Twitter Vk Yandex Mail.ru

Machine Head - machine head - текст песни, видео

Печатать
Просмотров: 83
TABBED BY:Aaron dude 

scissorsz@n2.com
===please email me what you think===

artist:machine head
song:Desire to Fire 
tuning - B,F,B,E,G,C
equipment:dist pedal,wah pedal and maybe whammy bar pedal| 

intro

W/Dist pedal
F-0--6--6--0--6--6--0--6-|---0---
 B-0--6--6--0--6--6--0--6-|---0--- + 3

chorus

F-0--1--4--0--x-1-4-
 B-0--1--4--0--x-1-4- + 3 then..

fill

F-0--1--4--6---0--6--6--0--6-|
 B-0--1--4--6---0--6--6--0--6-|

w/clean tone

we turn desire to fire electric spark to the wire....

 B--7----------------------------- 
F--6-----------------------------
 B----0--0-0---0-3-0--0-5-0--0----

W/Dist pedal

we bring chaos!...

 E--8-----------------------------
 B-------------------------------- 
F--6-----------------------------
 B----0--0-0---0-3-0--0-5-0--0----

 
 H
 < > 
F--3---5--5----5-5-3-6-6-6-6-6-6-6- + 2 THEN
 B--3---5--5----5-5-3-6-6-6-6-6-6-6-

fill

 E------------------------|
 B-5--3-------------------|
F-6----5-4-3-------------|
 B-6-----------6----------|

 + O
 E--8----------------------------
 B--7---------------------------- X3
 F------------------------------
 B----0--0-0---0-3-0--0-5-0--0---

 + O
E--8-----------------------------
 B-7----------------------------- X3
F-------------------------------
 B----0--0-0---0-3-5-5--3-6-6~0--

(BEND) (full)
 / /--------
 /  / 
 / --/ >
--
C---0--0---0-0-0-0--------------------
G---3--3---3-3-3-3---------------------
Blend gradauly------|

F----------0---------------0-------------------
 B--2h3-2h3---3-2h3-2h3-2h3---3---(and so on)---

 + o + o
G ----------------------------------------
C ---------------9--------------9--------- X 3 
E --------------12--------------12--------
B ----------------------------------------
F ---0-0-0-0---------0-0-0-0--------------
B ---0-0-0-0---------0-0-0-0--------------
p.m . . . . . . . .

 > > > > 
............................
 + o + o
G --------------------------------------------------------(let ring out)
C -----------9-------------9-----------9------------(-9--)----------|
E -----------12------------12----------12-----------(-12-)----------|
B ---0-0-----------0-0-----------0-0--------------------------------|
F ---0-0-----------0-0-----------0-0--------------------------------|
B ---0-0-----------0-0-----------0-0-------0-0-0-0------------------|
P.M . . . . 
 >...>.....>....>....>....
G --------------------------------------------------|
C -----9------------------9-------------------------|
E ---------------12--------------12----------12-----|
B --------------------------------------------------|
F --------------------------------------------------|
B --------------------------------------------------|

(W/WAH) X3

G ---------------------------|
C --9----9----9--------------|
E ----12---12---12-12--------|
B ---------------------------|
F ---------------------------|
B ---------------------------|

THEN

G --------------------------------|
C --------------------------------|
E --------------------------------|
B --------------------------------|
F ---0-6-6-0-6-6-0-6--------------|
B ---0-6-6-0-6-6-0-6--------------|
Добавлено: 29.08.2013
Другие материалы по этой песне:
  • Текст (слова)

Страница создана 29.08.2013
http://primanota.ru/machine-head/machine-head-lyrics.htm
Привет, Гость.
Предлагаем пройти революционный курс по гитаре.
Подарок от PrimaNota.Ru, забирай!