PrimaNota.ru - самый крупный в мире бесплатный архив песенных текстов, аккордов, табулатур и нот


Machinae Supremacy - Hero - текст песни, таба, видео

Регистрация Запомнить меня
Войти через:  Facebook Google Twitter Vk Yandex Mail.ru

Machinae Supremacy - Hero - текст песни, таба, видео

Печатать
Просмотров: 352
-------------------------------------------------------------------------------
                             HERO - Machinae Supremacy
-------------------------------------------------------------------------------
Tabbed by: Shalinar
After searching the internet and finding only Guitar Pro tabs, i compiled
this one into a text form so everyone can use it. This is 100% correct,
i checked it with the Guitar Pro tabs. Enjoy!

Tuning: Standard (eGBDAE)


Guitar 1
e|-------------------|---------------------|
B|-------------------|---------------------|
G|-9--------7-9------|-7---------7---------|
D|---7-10-7-----9-10-|------9-10---10-9-10-|
A|-------------------|---10----------------|
E|-------------------|---------------------|

e|---------------------|----------------------|
B|---------------------|----------------------|
G|-9------9-10-9-7-----|-7---------7----------|
D|---7-10-----------10-|------9-10---10-9-10--|
A|---------------------|---10-----------------|
E|---------------------|----------------------|

Guitar 1 repeats that 4 times, then plays:

e|-------|------|------|
B|--10---|------|------|
G|-------|--9---|--9---|
D|--7----|--7---|--7---|
A|-------|--0---|--0---|
E|-------|------|------|

| /  slide up
| \  slide down
| h  hammer-on
| p  pull-off
| ~  vibrato
| +  harmonic
| x  Mute note
===============================================================================
Добавлено: 23.02.2012
Другие материалы по этой песне:

Страница создана 23.02.2012
http://primanota.ru/machinae-supremacy/hero-chords.htm
Привет, Гость.
Предлагаем пройти революционный курс по гитаре.
Подарок от PrimaNota.Ru, забирай!