PrimaNota.ru - самый крупный в мире бесплатный архив песенных текстов, аккордов, табулатур и нот


Machinae Supremacy - Flimbos Quest - таба, видео

Регистрация Запомнить меня
Войти через:  Facebook Google Twitter Vk Yandex Mail.ru

Machinae Supremacy - Flimbos Quest - таба, видео

Печатать
Просмотров: 183
                     PM---|
|-----------------------------------------------------------|
|-----------------------------------------------------------|
|---------12-9----------------------------------------------|
|----9-12------10----------10---------12-10-9----9----------|
|-10--------------10----10----9-10-12---------12---10----10-|
|--------------------12-------------------------------10----|

                      ~~               ~~
|--------------------------------|-------|-------|
|------------10------------------|-------|-10----|
|---------12----9----12--11-9----|-11-12-|----12-|
|----9-12---------10----------12-|-------|-------|
|-10-----------------------------|-------|-------|
|--------------------------------|-------|-------|
   
PM------------------------------------------------------------------|             PM|
|-----------------------------------------------------------------------------------------------|
|-------------------------12-------12-------12----13-------13-------13--------------------------|
|-14-12----14-12----14-12----12-------12-------12----12-------12-------12-14--12-------12-14----|
|-------12-------12-------------12-------12-------------12-------12--------------12-16----------|
|-----------------------------------------------------------------------------------------------|
|-----------------------------------------------------------------------------------------------|
  
 PM------------|         PM---|
|----------------------------------------12----12--------------------------------------|
|-------------------12----12-------15-12----15----13----15-13-12-----------------------|
|-14-12----14-12-------12----12----------------------14----------14-12--11-------------|
|-------12-------12-------------12-----------------------------------------14-12-10----|
|--------------------------------------------------------------------------------------|
|--------------------------------------------------------------------------------------|

|----------------------------------|------------------|--------------------|
|----------------------------------|------------------|--------------------|
|-9--12-11-9------11----11----11-9-|-11----11----9----|-9-9-9-12-11-9------|
|------------12-9----12----12------|----12----12------|---------------12-9-|
|----------------------------------|---------------10-|--------------------|
|----------------------------------|------------------|--------------------|

|-------------------------------------------------------------------------|
|-------------------------------------------------------------------------|
|---9-12-12-9----11------9--------------------------------
----------------|
|-9-----------10----12-9---10----12-9----10------9-------------------12---|
|-----------------------------12------10----12-9---10-----12----9-12------|
|-----------------------------------------------------12-----10-----------|
Добавлено: 01.03.2012
Другие материалы по этой песне:
  • Аккорды и текст

Страница создана 01.03.2012
http://primanota.ru/machinae-supremacy/flimbos-quest-chords.htm
Привет, Гость.
Предлагаем пройти революционный курс по гитаре.
Подарок от PrimaNota.Ru, забирай!