PrimaNota.ru - самый крупный в мире бесплатный архив песенных текстов, аккордов, табулатур и нот


Machinae Supremacy - Player One - текст песни, таба, видео

Регистрация Запомнить меня
Войти через:  Facebook Google Twitter Vk Yandex Mail.ru

Machinae Supremacy - Player One - текст песни, таба, видео

Печатать
Просмотров: 179
Авторы музыки: Machinae Supremacy
Авторы текста: Machinae Supremacy



Date: Fri, 26 May 2006 17:03:55 +0200 (CEST)
From: Magyar Attila 
Subject: m/machinae_supremacy/player_one.tab

Artist: Machinae Supremacy
Title: Player One
Album: Deus Ex Machinae
Genre: Geek-rock :-)
Web: http://www.machinaesupremacy.com

This song is available for free to download at:

http://www.machinaesupremacy.com/discography.html 

Tab: Attila Magyar
Web: http://mogyi925.extra.hu

Intro

Melody:
E|---------------9-7------------------------------9-7--------------7-
B|-10--7---7-9-10------9---10-9-7-9-10--7---7-9-10------9---9-10-10--
G|-------------------------------------------------------------------
D|-------------------------------------------------------------------
A|-------------------------------------------------------------------
E|-------------------------------------------------------------------
  F#m             E                Bm                  C#

E|---------------9-7------------------------------9-7------9-9-9-10p9---
B|-10--7---7-9-10------9---10-9-7-9-10--7---7-9-10-----9----------------
G|----------------------------------------------------------------------
D|----------------------------------------------------------------------
A|----------------------------------------------------------------------
E|----------------------------------------------------------------------
  F#m             E                Bm                     C# 

Interlude:
E------------------
B------------------
G------------------
D------------------
A------------------
E-2-0h2--0h2--0h2-- [x4]

Verse1:
E-----------------------------------------------------------------
B-----------------------------------------------------------------
G-----------------------------------------------------------------
D-----------------0h2-0h2-0h2-0h2---------------------------------
A---------------------------------4h5-4h5-4h5-4h5-2h4-2h4-2h4-2h4-
E-0h2-0h2-0h2-0h2-------------------------------------------------
A misfit... No religion...     ...weary of...  So tired...

Verse2:
E-----------------------------------------------------------------
B-----------------------------------------------------------------
G-----------------------------------------------------------------
D-----------------------------------------------------------------
A-----------------------------------------------------------------
E-0h2-0h2-0h2-0h2-2h4-2h4-2h4-2h4-4h5-4h5-4h5-4h5-7h9-7h9-7h9-7h9-
...grey and... ...evil...   ...is hidden...     Unseen or...

Verse3:
E------------------------------------------------------------
B------------------------------------------------------------
G------------------------------------------------------------
D-4-4--4-4-4-4-4-4-4--4-4-4-4-4-2-2--2-2-2-2-2-2-2--2-2-2-2-2-
A-4-4--4-4-4-4-4-4-4--4-4-4-4-4-2-2--2-2-2-2-2-2-2--2-2-2-2-2-
E-2-2--2-2-2-2-2-2-2--2-2-2-2-2-0-0--0-0-0-0-0-0-0--0-0-0-0-0-
  F#m                           E
  Welcome...          Where you always get...

E-------------------------------------------------------------
B-------------------------------------------------------------
G-7-7--7-7-7-7-7-7-7--7-7-7-7-7-6-6--6-6-6--------------------
D-7-7--7-7-7-7-7-7-7--7-7-7-7-7-6-6--6-6-6--------------------
A-5-5--5-5-5-5-5-5-5--5-5-5-5-5-4-4--4-4-4--4-4-5-4-2-4-2-0---
E-----------------------------------------------------------4-
  D                             C#
..loose a...           But you win if...

Verse4:
E-------------------------------------------------------------
B-------------------------------------------------------------
G-------------------------------------------------------------
D-4-4--4-4-4-4-4-4-4--4-4-4-4-4/6-6--6-6-6-6-6-6-6--6-6-6-6-6/
A-4-4--4-4-4-4-4-4-4--4-4-4-4-4/6-6--6-6-6-6-6-6-6--6-6-6-6-6/
E-2-2--2-2-2-2-2-2-2--2-2-2-2-2/4-4--4-4-4-4-4-4-4--4-4-4-4-4/
  F#m                           G#m       
Face up and...   ~~   You ever knew since...


E-------------------------------------------------------------
B-------------------------------------------------------------
G-------------------------------6-6--6-6-6--------------------
D-7-7--7-7-7-7-7-7-7--7-7-7-7-7-6-6--6-6-6--------------0-2-4-
A-7-7--7-7-7-7-7-7-7--7-7-7-7-7-4-4--4-4-4--4-4-5-4-2-4-5-----
E-5-5--5-5-5-5-5-5-5--5-5-5-5-5-------------------------------
  A                             C#
Always...             When it's all inside...

Chorus:
F#m              E
I wanna' play... die
          Bm
Don't... why
                C#
...towards the sky
In a world.../Now I feel...

    F#m            E
And I keep... for more
             Bm
...until I score
           C#
...than before
In a...

Melody
Verse1
Verse4
Chorus

[Solo]

Outro:
F#m     E          Bm
Tomorrow I... be here,
    C#    -    D
and I won't... only one.
F#m           E       Bm
Our... will always adhere
C#    -    D
to a... beyond this one

Outro
Interlude


Добавлено: 17.11.2013
Другие материалы по этой песне:

Страница создана 05.06.2012
http://primanota.ru/machinae-supremacy/player-one-chords.htm
Привет, Гость.
Предлагаем пройти революционный курс по гитаре.
Подарок от PrimaNota.Ru, забирай!