PrimaNota.ru - самый крупный в мире бесплатный архив песенных текстов, аккордов, табулатур и нот


Lynyrd Skynyrd - Hes Alive - таба, видео

Регистрация Запомнить меня
Войти через:  Facebook Google Twitter Vk Yandex Mail.ru

Lynyrd Skynyrd - Hes Alive - таба, видео

Печатать
Просмотров: 65
-------------------------------------------------------------------------------
                            He's Alive - Lynyrd Skynyrd
-------------------------------------------------------------------------------
Tabbed by:Dylan(Allen1977)

Tuning:Standard EADGBe

| /   slide up
| \   slide down
| h   hammer-on
| x   Mute note


Intro:     E       G D              E       D A          E       G D           E       D A G
e|-X-X-X-X----------------------------------------------------------------------------------|
B|-X-X-X-X----------------------------------------------------------------------------------|  
G|-X-X-X-X-----------7--7-7-----------------7-2-2------------------7--7-7--------------7-2--|
D|-X-X-X-X-2-X-2-X-5-7--7-7---0h2---2-X-2-X-7-2-2---0h2--2-X-2-X-5-7--7-7--0h2-2-X-2-X-7-2-5|
A|-X-X-X-X-2-X-2-X-5-5--5-5---------2-X-2-X-5-0-0--------2-X-2-X-5-5--5-5------2-X-2-X-5-0-5|
E|-X-X-X-X-0-X-0-X-3---------3------0-X-0-X-------3------0-X-0-X-3--------3----0-X-0-X-----3|

Verse:
   C       G       F        D        B Flat  F
e|-0--0-0--3--3-3--1--1-1-------------------------------------------------------------------|
B|-1--1-1--3--3-3--1--1-1-------------------------------------------------------------------|
G|-0--0-0--0--0-0--2--2-2--/7777777--3--3-3-------------------------------------------------|
D|-2--2-2--0--0-0--3--3-3--/7777777--3--3-3--3--3-3--/7-7-9-7-7-7-9-7-7-7/9-9-11-9-9-9-11---|
A|-3--3-3--2--2-2--3--3-3--/5555555--1--1-1--3--3-3--/5-5-5-5-5-5-5-5-5-5/7-7-7--7-7-7-9----|
E|---------3--3-3--1--1-1--------------------1--1-1-----------------------------------------|
Don't Stop Playing

Chorus:
   G        D          A
e|------------------------------------------------------------------------------------------|
B|------------------------------------------------------------------------------------------|
G|-12-12-12-----------/14-14-14-14-14-------------------------------------------------------| x3
D|-12-12-12-12-12-12--/14-14-14-14-14--------12---------------------------------------------| 
A|-10-10-10-12-12-12--/12-12-12-12-12-/12-14------------------------------------------------|
E|----------10-10-10------------------------------------------------------------------------|
    G        D         A
e|---------------------------------------------------------------------------|
B|---------------------------------------------------------------------------|
G|--12-12-12-----------2-2-2-2-2---------------------------------------------| x1
D|--12-12-12-12-12-12--2-2-2-2-2---------------------------------------------|
A|--10-10-10-12-12-12--0-0-0-0-0---------------------------------------------|
E|-----------10-10-10--------------------------------------------------------|

                                        Replay Intro x1
                                        Replay Verse x1
                                        Replay Chorus x1

Rhythm Behind Solo:(Sorry, I Don't Know The Solo Yet)
   E       G D       E       D A                  E       G D       E       D A G
e|------------------------------------------------------------------------------------------|
B|------------------------------------------------------------------------------------------|
G|-----------7-7-7-7---------7-2-2-2-2-2-2------------------7-7-7-7---------7-2-------------| x2
D|-2-X-2-X-5-7-7-7-7-2-X-2-X-7-2-2-2-2-2-2--------2-X-2-X-5-7-7-7-7-2-X-2-X-7-2-5-----------|
A|-2-X-2-X-5-5-5-5-5-2-X-2-X-5-0-0-0-0-0-0-/(14)\-2-X-2-X-5-5-5-5-5-2-X-2-X-5-0-5-----------|
E|-0-X-0-X-3---------0-X-0-X----------------------0-X-0-X-3---------0-X-0-X-----3-----------|

                                        Replay Verse x1
                                        Replay Chorus x1

Outro:
   E       G D              E       D A          E       G D           E       D A G A D
e|--------------------------------------------------------------------------------------|
B|--------------------------------------------------------------------------------------|  
G|-----------7--7-7-----------------7-2-2------------------7--7-7--------------7-2---2-7|
D|-2-X-2-X-5-7--7-7---0h2---2-X-2-X-7-2-2---0h2--2-X-2-X-5-7--7-7--0h2-2-X-2-X-7-2-5-2-7|
A|-2-X-2-X-5-5--5-5---------2-X-2-X-5-0-0--------2-X-2-X-5-5--5-5------2-X-2-X-5-0-5-0-5|
E|-0-X-0-X-3---------3------0-X-0-X-------3------0-X-0-X-3--------3----0-X-0-X-----3----|
Don't stop playing.

   A G A  D
e|--------------------------------------------------------------------------------------|
B|--------------------------------------------------------------------------------------|
G|-2---2--7-----------------------------------------------------------------------------|
D|-2-5-2--7-----------------------------------------------------------------------------|
A|-0-5-0--5-----------------------------------------------------------------------------|
E|---3----------------------------------------------------------------------------------|
Добавлено: 28.07.2013
Другие материалы по этой песне:
  • Аккорды и текст

Страница создана 28.07.2013
http://primanota.ru/lynyrd-skynyrd/hes-alive-chords.htm
Привет, Гость.
Предлагаем пройти революционный курс по гитаре.
Подарок от PrimaNota.Ru, забирай!