PrimaNota.ru - самый крупный в мире бесплатный архив песенных текстов, аккордов, табулатур и нот


Lynyrd Skynyrd - Still Unbroken - текст песни, таба, видео

Регистрация Запомнить меня
Войти через:  Facebook Google Twitter Vk Yandex Mail.ru

Lynyrd Skynyrd - Still Unbroken - текст песни, таба, видео

Печатать
Просмотров: 378
-------------------------------------------------------------------------------
                             Still Unbroken - Lynyrd Skynyrd
-------------------------------------------------------------------------------
Tabbed by: Ryan Carroll
Email:rcarroll.simpson@yahoo.com

Revised November 08th, 2009
Tuning:standard

this is my first tab, using this format that is... this song was just released not 
too long ago. It will be on the album god and guns coming this fall. this is an awesome song 
and my first full attempt at tabbing a song.this was just a quick look at the 
song. oh, and b is bend, but i assume that is common sense.Listen to the song and you can figure 
out timing issues. like i said this is my first attempt, so i hope it is not too 
confusing, these are just some of the main riffs... enjoy! i apologize if anything is wrong.

There are 3 guitars(duh, its a skynyrd song), 1 of which uses a slide for the 
duration of the song. I
have tried to make it clear which guitar plays which part. Im sorry if it isnt 
clear, email me with corrections
and comments. 

the song order: 1. intro(w/ intro riff 2)
                2. verse
                3. chorus
                4. intro riff 1 & 2
                5. verse
                6. chorus
                7. bridge
                8. solo(coming soon, hopefuly)
                9. chorus
                10. intro
intro(edited 11-08-2009)
(play this once)Guitar 1 
e|---------------------------------------------------------------------------------|
B|---------------------------------------------------------------------------------|
G|-----4--6------------------------4--6--------------------------------------------|    
D|-----4--6---4---4\2----2--4------4--6--4--4\2-----2--4---------------------------|
A|------------4---4\2-4--2--4-4----------4--4\2--4--2--4--4------------------------|
E|--------------------4-------4------------------4--------4------------------------|
(then this)
e|---------------------------------------------------------------------------------|
B|---------------------------------------------------------------------------------|
G|-----4--6------------------------4--6--------------------------------------------|    
D|-----4--6---4---4\2----2--4------4--6--4--4\2-----2--2---------------------------|
A|------------4---4\2-4--2--4-4----------4--4\2--4--2--2--4------------------------|
E|--------------------4-------4------------------4--------4------------------------|


(edited 11-05-2009)
intro Riff #2(comes in after the intro is played one through/play twice)(slide guitar)
e|---------------------------------------------------------------------------------|
B|----12-14--7-5-5--2/--12-14-7-5-5------------------------------------------------|
G|----------------------------------6\---------------------------------------------|
D|---------------------------------------------------------------------------------|
A|---------------------------------------------------------------------------------|
E|---------------------------------------------------------------------------------|
verse(this is played rather quicly, so just listen to the song)(guitar 1)
e|--9-----9---7-----7---6-----6---4-----4---4-----4---4-----4---1-----1---1-----1--|this plays twice
B|--9-9-9--9--9-9-9--9--7-7-7--7--6-6-6--6--5-5-5--5--7-7-7--7--2-2-2--2--2-2-2--2-| during verse
G|---------------------------------------------------------------------------------|
D|---------------------------------------------------2-----------------------------|
A|----------------------------------*--2-4-4-2-4-2-4---4---------------------------|
E|---------------------------------------------------------------------------------|
*plays through verse comes in right after intro(guitar 3)

chorus(edited 11-05-09)                                     (strum these 4x or hold each out) 
e|---------------------------------------------------------------------------------|
B|---------------------------------------------------------------------------------|
G|--4-4---------------4-4---------------4-4----------------4---------4-------------|
D|--2-2-4-4---4---4---2-2-4-4--4**-4----2-2-4-4---4---4----2--4---6--2-4--6--------|
A|------2-2---6---6-------2-2--6---6--------2-2---6---6-------2---4----2--4--------|
E|---------------------------------------------------------------------------------|
slide guitar
e|---------------------------------------------------------------------------------|
B|----14--12--9---7/5--2--5--7-----------------------------------------------------| **this plays as
G|---------------------------------------------------------------------------------|that note is hit
D|---------------------------------------------------------------------------------|
A|---------------------------------------------------------------------------------|
E|---------------------------------------------------------------------------------|

bridge(verse 3, if you prefer)(added 9/12/09)            
e|-----------------------------9-9-9-9---------------------------------------------|
B|--------------------------7\9-9-9-9-----7b-------------6b\--3b-------------------|
G|--\4/----/9\----\6---------------------------------------------------------------|
D|---------------------------------------------------------------------------------|
A|---------------------------------------------------------------------------------|
E|---------------------------------------------------------------------------------|
 this plays as well, guitar 3(repeating until solo)edited 11-05-2009
e|---------------------------------------------------------------------------------|
B|---------------------------------------------------------------------------------| 
G|---------------------------------------------------------------------------------| 
D|---------------------------------------------------------------------------------|
A|--2-4-4-4/7--4--4-2-4------------------------------------------------------------|
E|---------------------------------------------------------------------------------|
(listen to the song for the pattern there, pretty much the same as the verse)
Добавлено: 05.07.2012
Другие материалы по этой песне:

Страница создана 04.04.2012
http://primanota.ru/lynyrd-skynyrd/still-unbroken-chords.htm
Привет, Гость.
Предлагаем пройти революционный курс по гитаре.
Подарок от PrimaNota.Ru, забирай!