PrimaNota.ru - самый крупный в мире бесплатный архив песенных текстов, аккордов, табулатур и нот


Lynyrd Skynyrd - Low Down Dirty - текст песни, таба, видео

Регистрация Запомнить меня
Войти через:  Facebook Google Twitter Vk Yandex Mail.ru

Lynyrd Skynyrd - Low Down Dirty - текст песни, таба, видео

Печатать
Просмотров: 87
Уроки эстрадного вокала в Санкт-Петербурге
This is my first tab. It may not be 100% correct but it sounds pretty close!

Intro/chorus

This works better if you give the 3rd and 10th frets half bends as well as pull offs

E-----------------------|    |-------------------|
B-----------------------|    |-------------------|
G-----------------------|    |-------------------|
D-----------------------|    |--55-5/77-7/88-8/77|
A-----------------------|    |--55-5/77-7/88-8/77|
E-0-3p0--00--0-10p0--00-| x3 |--33-3/55-5/66-6/55|

in the intro after going through once a second guitar should play. During the chorus the 
second guitar is there from the start.

E-----------------------|    |-------------------|
B-----------------------|    |-------------------|
G-----------------------|    |-------------------|
D---5p0--------12p0-----|    |--55-5/77-7/88-8/77|
A---5p0--------12p0-----|    |--55-5/77-7/88-8/77|
E-0-3p0--00--0-10p0--00-| x3 |--33-3/55-5/66-6/55|

Verse

E--------------------------------------------|
B--------------------------------------------|
G--------------------------------------------|
D--5/72-552---552-5-7----5/72-552---552-8-7--|
A--5/72-552---552-5-7----5/72-552---552-8-7--|
E--3/50-330---330-3-5----3/50-330---330-6-5--|   x2

Occasionally it varies slightly, and adds in a slide on the low E string.

Pre Chorus

E----------------------|
B----------------------|
G----------------------|
D--999999996666888\----|
A--999999996666888\----|
E--777777774444666\----|

Note in the second pre chorus that it is longer and goes.

E--------------------------------------|
B--------------------------------------|
G--------------------------------------|
D--9999999966666666999999996666888\----|
A--9999999966666666999999996666888\----|
E--7777777744444444777777774444666\----|

Sorry this is only the Rhythm guitar, I'll get round to the rest some other time. Enjoy, 
any questions email goddamnwornstar@live.co.uk
Добавлено: 22.09.2013
Другие материалы по этой песне:
  • Аккорды и текст

Страница создана 22.09.2013
http://primanota.ru/lynyrd-skynyrd/low-down-dirty-chords.htm
Привет, Гость.
Предлагаем пройти революционный курс по гитаре.
Подарок от PrimaNota.Ru, забирай!