PrimaNota.ru - самый крупный в мире бесплатный архив песенных текстов, аккордов, табулатур и нот


Low - Sunflower Live - таба, видео

Регистрация Запомнить меня
Войти через:  Facebook Google Twitter Vk Yandex Mail.ru

Low - Sunflower Live - таба, видео

Печатать
Просмотров: 146
Уроки эстрадного вокала в Санкт-Петербурге
-------------------------------------------------------------------------------
                             Sunflower (Live) - Low
-------------------------------------------------------------------------------
Tabbed by: Hanoihancock
Tuning: Open G with Drone String (DGDGGD)
Notes: This was tabbed from a live performance by low at Colorado College   

  (Guitar Intro x1 then Drums/Bass x1)
d |-0--0--0--0--0--0--0--0--|-0--0--0--0--0--0--0--0--|
G |-0--0--0--0--0--0--0--0--|-0--0--0--0--0--0--0--0--|
G |-0--0--0--0--0--0--0--0--|-0--0--0--0--0--0--0--0--|
D |-0--0--0--0--0--0--0--0--|-0--0--0--0--0--0--0--0--|
G |-12-12-12-12-12-12-12-12-|-11-11-11-11-11-11-11-11-|
D |-14-14-14-14-14-14-14-14-|-12-12-12-12-12-12-12-12-|

d |-0--0--0--0--0--0--0--0--|-0-0-0-0-0-0-0-0-||
G |-0--0--0--0--0--0--0--0--|-0-0-0-0-0-0-0-0-||
G |-0--0--0--0--0--0--0--0--|-0-0-0-0-0-0-0-0-||
D |-0--0--0--0--0--0--0--0--|-0-0-0-0-0-0-0-0-||
G |-9--9--9--9--9--9--9--9--|-7-7-7-7-7-7-7-7-||
D |-10-10-10-10-10-10-10-10-|-9-9-9-9-9-9-9-9-||

Verse x2 (Text of verse 1 stacked on verse 2)
                When they     found             your
                         Underneath        the star of    
d |-0--0--0--0--0--0--0--0--|-0--0--0--0--0--0--0--0--|
G |-0--0--0--0--0--0--0--0--|-0--0--0--0--0--0--0--0--|
G |-0--0--0--0--0--0--0--0--|-0--0--0--0--0--0--0--0--|
D |-0--0--0--0--0--0--0--0--|-0--0--0--0--0--0--0--0--|
G |-12-12-12-12-12-12-12-12-|-11-11-11-11-11-11-11-11-|
D |-14-14-14-14-14-14-14-14-|-12-12-12-12-12-12-12-12-|

    body
    David
d |-0--0--0--0--0--0--0--0--|-0-0-0-0-0-0-0-0-|
G |-0--0--0--0--0--0--0--0--|-0-0-0-0-0-0-0-0-|
G |-0--0--0--0--0--0--0--0--|-0-0-0-0-0-0-0-0-|
D |-0--0--0--0--0--0--0--0--|-0-0-0-0-0-0-0-0-|
G |-9--9--9--9--9--9--9--9--|-7-7-7-7-7-7-7-7-|
D |-10-10-10-10-10-10-10-10-|-9-9-9-9-9-9-9-9-|

                Giant         X's on     your
                A hundred     years behind my    
d |-0--0--0--0--0--0--0--0--|-0--0--0--0--0--0--0--0--|
G |-0--0--0--0--0--0--0--0--|-0--0--0--0--0--0--0--0--|
G |-0--0--0--0--0--0--0--0--|-0--0--0--0--0--0--0--0--|
D |-0--0--0--0--0--0--0--0--|-0--0--0--0--0--0--0--0--|
G |-12-12-12-12-12-12-12-12-|-11-11-11-11-11-11-11-11-|
D |-14-14-14-14-14-14-14-14-|-12-12-12-12-12-12-12-12-|

    eyes
    eyes
d |-0--0--0--0--0--0--0--0--|-0-0-0-0-0-0-0-0-|
G |-0--0--0--0--0--0--0--0--|-0-0-0-0-0-0-0-0-|
G |-0--0--0--0--0--0--0--0--|-0-0-0-0-0-0-0-0-|
D |-0--0--0--0--0--0--0--0--|-0-0-0-0-0-0-0-0-|
G |-9--9--9--9--9--9--9--9--|-7-7-7-7-7-7-7-7-|
D |-10-10-10-10-10-10-10-10-|-9-9-9-9-9-9-9-9-|
   
                And with your half         of     the
                And with my   half         of     the      
d |-0--0--0--0--0--0--0--0--|-0--0--0--0--0--0--0--0--|
G |-0--0--0--0--0--0--0--0--|-0--0--0--0--0--0--0--0--|
G |-0--0--0--0--0--0--0--0--|-0--0--0--0--0--0--0--0--|
D |-0--0--0--0--0--0--0--0--|-0--0--0--0--0--0--0--0--|
G |-12-12-12-12-12-12-12-12-|-11-11-11-11-11-11-11-11-|
D |-14-14-14-14-14-14-14-14-|-12-12-12-12-12-12-12-12-|

    ransom                               You bought some
    ransom                               I   bought some 
d |-0--0--0--0--0--0--0--0--|-0-0-0-0-0-0-0-0-|
G |-0--0--0--0--0--0--0--0--|-0-0-0-0-0-0-0-0-|
G |-0--0--0--0--0--0--0--0--|-0-0-0-0-0-0-0-0-|
D |-0--0--0--0--0--0--0--0--|-0-0-0-0-0-0-0-0-|
G |-9--9--9--9--9--9--9--9--|-7-7-7-7-7-7-7-7-|
D |-10-10-10-10-10-10-10-10-|-9-9-9-9-9-9-9-9-|

    sweet         sweet       sweet          sweet sun
    sweet         sweet       sweet          sweet sun
d |-0--0--0--0--0--0--0--0--|-0--0--0--0--0--0--0--0--|
G |-0--0--0--0--0--0--0--0--|-0--0--0--0--0--0--0--0--|
G |-0--0--0--0--0--0--0--0--|-0--0--0--0--0--0--0--0--|
D |-0--0--0--0--0--0--0--0--|-0--0--0--0--0--0--0--0--|
G |-12-12-12-12-12-12-12-12-|-11-11-11-11-11-11-11-11-|
D |-14-14-14-14-14-14-14-14-|-12-12-12-12-12-12-12-12-|

    flowers                                 and
    flowers                                 and 
d |-0--0--0--0--0--0--0--0--|-0-0-0-0-0-0-0-0-|
G |-0--0--0--0--0--0--0--0--|-0-0-0-0-0-0-0-0-|
G |-0--0--0--0--0--0--0--0--|-0-0-0-0-0-0-0-0-|
D |-0--0--0--0--0--0--0--0--|-0-0-0-0-0-0-0-0-|
G |-9--9--9--9--9--9--9--9--|-7-7-7-7-7-7-7-7-|
D |-10-10-10-10-10-10-10-10-|-9-9-9-9-9-9-9-9-|

    gave them                   to the night
    gave them                   to the night
d |-0-0-0-0-0-0-0-0-|-0-0-0-0-0-0-0-0-|--0--------------||
B |-0-0-0-0-0-0-0-0-|-0-0-0-0-0-0-0-0-|--0--------------||
G |-0-0-0-0-0-0-0-0-|-0-0-0-0-0-0-0-0-|--0--------------||
D |-0-0-0-0-0-0-0-0-|-7-7-7-7-7-7-7-7-|--0--------------||
G |-5-5-5-5-5-5-5-5-|-5-5-5-5-5-5-5-5-|--0--------------||
D |-7-7-7-7-7-7-7-7-|-7-7-7-7-7-7-7-7-|--5--------------||

(Synth Bridge)
d |--0--|--0--|--0--|--0--|--0--|--0--|--0--||
A |--0--|--0--|--0--|--0--|--0--|--0--|--0--||
G |--0--|--0--|--0--|--0--|--0--|--0--|--0--||
D |--0--|--0--|--0--|--0--|--0--|--0--|--0--||
G |--10-|--9--|--7--|--5--|--4--|--5--|--0--||
D |--12-|--10-|--9--|--7--|--5--|--7--|--5--||

(Instrumental x2)
d |----------------|----------------|---------------|---------------||
G |----------------|----------------|---------------|---------------||
G |-------0------0-|-------0------0-|-------0-----0-|------0------0-||
D |-----0------0---|-----0------0---|-----0-----0---|-----0-----0---||
G |---12-----12----|---11-----11----|---9-----9-----|---7-----7-----||

Outro x2
    Sweet         Sweet       Sweet        Sweet Sun 
d |-0--0--0--0--0--0--0--0--|-0--0--0--0--0--0--0--0--|
G |-0--0--0--0--0--0--0--0--|-0--0--0--0--0--0--0--0--|
G |-0--0--0--0--0--0--0--0--|-0--0--0--0--0--0--0--0--|
D |-0--0--0--0--0--0--0--0--|-0--0--0--0--0--0--0--0--|
G |-12-12-12-12-12-12-12-12-|-11-11-11-11-11-11-11-11-|
D |-14-14-14-14-14-14-14-14-|-12-12-12-12-12-12-12-12-|

    flowers
d |-0--0--0--0--0--0--0--0--|-0-0-0-0-0-0-0-0-||
G |-0--0--0--0--0--0--0--0--|-0-0-0-0-0-0-0-0-||
G |-0--0--0--0--0--0--0--0--|-0-0-0-0-0-0-0-0-||
D |-0--0--0--0--0--0--0--0--|-0-0-0-0-0-0-0-0-||
D |-10-10-10-10-10-10-10-10-|-9-9-9-9-9-9-9-9-||

Outro continued (Picking from instrumental reintroduced)
    Sweet    Sweet   Sweet  Sweet  Sunflowers                     and
d |----------------|----------------|---------------|---------------|
G |----------------|----------------|---------------|---------------|
G |-------0------0-|-------0------0-|-------0-----0-|------0------0-|
D |-----0------0---|-----0------0---|-----0-----0---|-----0-----0---|
G |---12-----12----|---11-----11----|---9-----9-----|---7-----7-----|
D |-14-----14------|-12-----12------|-10----10------|-9-----9-------|

    gave them                   to the night
d |-0-0-0-0-0-0-0-0-|-0-0-0-0-0-0-0-0-|--0--------------||
B |-0-0-0-0-0-0-0-0-|-0-0-0-0-0-0-0-0-|--0--------------||
G |-0-0-0-0-0-0-0-0-|-0-0-0-0-0-0-0-0-|--0--------------||
D |-0-0-0-0-0-0-0-0-|-7-7-7-7-7-7-7-7-|--0--------------||
G |-5-5-5-5-5-5-5-5-|-5-5-5-5-5-5-5-5-|--0--------------||
D |-7-7-7-7-7-7-7-7-|-7-7-7-7-7-7-7-7-|--5--------------||

************************************

| /   slide up
| \   slide down
| h   hammer-on
| p   pull-off
| ~   vibrato
| +   harmonic
| x   Mute note
| b   Bend
| pb  Pre-bend
| br  Bend release
| pbr Pre-bend release
| brb Bend release bend

************************************
Добавлено: 03.07.2015
Другие материалы по этой песне:
  • Аккорды и текст

Страница создана 03.07.2015
http://primanota.ru/low/sunflower-live-chords.htm
Привет, Гость.
Предлагаем пройти революционный курс по гитаре.
Подарок от PrimaNota.Ru, забирай!