PrimaNota.ru - самый крупный в мире бесплатный архив песенных текстов, аккордов, табулатур и нот


Low - Slide - аккорды и текст, видео

Регистрация Запомнить меня
Войти через:  Facebook Google Twitter Vk Yandex Mail.ru

Low - Slide - аккорды и текст, видео

Печатать
Просмотров: 138
Уроки эстрадного вокала в Санкт-Петербурге
Slide
Low
Song: Slide
Artist: Low
Album: I Could Live In Hope

Tab by Mathias Isaksen

Tuning: Open G (DGDGBD)

*************************************************

I'm pretty certain this is the correct tuning, even though the 3 fret-strectch is somewhat difficult.

This song consists of two simple sections.

First section:
  CM7/E                      Dm
D|------------------------|-----------------------|
B|-------------12---------|------------10---------|
G|---------12------12-----|--------10------10-----|  
D|-----10-------------10--|-----7--------------7--|
G|--9---------------------|--7--------------------|
D|------------------------|-----------------------|

Second section:
  C                        D
D|-------------12----------|------------10----------|
B|-----------------12------|----------------10------|
G|---------12----------12--|--------10----------10--|   
D|-----10------------------|-----7------------------|
G|--9----------------------|--7---------------------|
D|-------------------------|------------------------|

I recommend using your pinky to fret the 3 top strings

Lyrics:

CM7/E      Dm    (10x)

  CM7/E                    Dm
They tell you come tomorrow
  CM7/E             Dm
Nothing for you now
  CM7/E                Dm
You listen so intently
  CM7/E        Dm
And slide
CM7/E        Dm
Slide
CM7/E        Dm
Slide
CM7/E        Dm
Slide

C      D    (4x)

  CM7/E             Dm
Hearing only yourself
  CM7/E             Dm
You wait for the truth
  CM7/E           Dm
How can you get it
  CM7/E       Dm
When all you do
  CM7/E          Dm
Is slide?
CM7/E          Dm
Slide
CM7/E          Dm
Slide
CM7/E          Dm
Slide

C      D    (4x)

End on CM7/E
Добавлено: 01.09.2015
Другие материалы по этой песне:
  • Аккорды и текст

Страница создана 01.09.2015
http://primanota.ru/low/slide-chords.htm
Привет, Гость.
Предлагаем пройти революционный курс по гитаре.
Подарок от PrimaNota.Ru, забирай!