PrimaNota.ru - самый крупный в мире бесплатный архив песенных текстов, аккордов, табулатур и нот


Lostprophets - If You Bring A Gun Well Bring An Arsenal - таба, видео

Регистрация Запомнить меня
Войти через:  Facebook Google Twitter Vk Yandex Mail.ru

Lostprophets - If You Bring A Gun Well Bring An Arsenal - таба, видео

Печатать
Просмотров: 88
----------------------------------------------------------------------------
          Lostprophets - If You Bring a Gun, We'll Bring an Arsenal
----------------------------------------------------------------------------

Tabbed by: Metalrock4ever

Tuning: DADGBE

Intro:
E|-18~---|
B|-------|
G|-------|  Hold until they finish singing
D|-------|
A|-------|
D|-------|


E|-----------------------------|
B|-----------------------------|
G|-----------------------------|
D|-8888-6666-11111111-15151515-|
A|-8888-6666-11111111-15151515-|
D|-8888-6666-11111111-15151515-|   <- they are 11's and 15's

E|--------------------------------------|
B|--------------------------------------|
G|--------------------------------------|
D|-8888-6666-11-11-11-11-13-13-13-13-8~-|
A|-8888-6666-11-11-11-11-13-13-13-13-8~-|
D|-8888-6666-11-11-11-11-13-13-13-13-8~-|

E|-----------------|
B|-----------------|
G|-----------------|
D|-8-8-8-8-8-8-8-8-| 
A|-----------------|
D|-----------------|

Verse:
Solo:
E|-(18~)----------------------------|
B|----------------------------------|
G|----------------------------------|
D|-8-8-8-8-8-8-8-8-8-8-8-8-8-8-8-10-|  x4
A|----------------------------------|
D|----------------------------------|

Chords (play after the solo guitar plays its' riff twice):
E|-----------------------------------------------------|
B|-----------------------------------------------------|
G|-----------------------------------------------------|
D|-8x-8x-8x-8x-11x-11x-11x-11x-4x-4x-4x-4x-1x-1x-1x-1x-|   x2
A|-8x-8x-8x-8x-11x-11x-11x-11x-4x-4x-4x-4x-1x-1x-1x-1x-|
D|-8x-8x-8x-8x-11x-11x-11x-11x-4x-4x-4x-4x-1x-1x-1x-1x-|

Pre-Chorus:
E|----------|
B|----------|
G|----------|
D|-4~-6~-7~-|
A|-4~-6~-7~-|
D|-4~-6~-7~-|

Chorus:
E|-------------------------------------------------------------------|
B|-------------------------------------------------------------------|
G|-------------------------------------------------------------------|
D|-8-8-8-10-11-11-11-11-4-4-4-4-1-1-1-1-8-8-8-10-11-11-11-11-444-666-|  x2
A|-8-8-8-10-11-11-11-11-4-4-4-4-1-1-1-1-8-8-8-10-11-11-11-11-444-666-|
D|-8-8-8-10-11-11-11-11-4-4-4-4-1-1-1-1-8-8-8-10-11-11-11-11-444-666-|

Solo part for Chorus (play on the repeat):
E|------------------------------|
B|-11~-9~-14~-6~-11~-9~---------|
G|------------------------------|
D|----------------------444-666-|
A|----------------------444-666-|
D|----------------------444-666-|

Pre-Verse:
E|------------------------------------------------------|
B|------------------------------------------------------|
G|------------------------------------------------------|
D|-8x-8x-4x-4x-6x-6x-3x-3x-3x-1-8x-8x-4x-4x-6x-6x-7x-7x-|
A|-8x-8x-4x-4x-6x-6x-3x-3x-3x-1-8x-8x-4x-4x-6x-6x-7x-7x-|
D|-8x-8x-4x-4x-6x-6x-3x-3x-3x-1-8x-8x-4x-4x-6x-6x-7x-7x-|

Verse 2:
Solo 1:
E|----------------------------------|
B|----------------------------------|
G|----------------------------------|
D|-8-8-8-8-8-8-8-8-8-8-8-8-8-8-8-10-|  x4
A|----------------------------------|
D|----------------------------------|

Solo 2 (play as soon as the verse starts, with other instruments):
E|-----------------------------|
B|-----------------------------|
G|-----------------------------|
D|-----------------------------|  
A|-----------------------------|
D|-8~-8~-11~-10~-8~-8~-11~-13~-|

Chords (play this part):
E|-----------------------------------------------------|
B|-----------------------------------------------------|
G|-----------------------------------------------------|
D|-8x-8x-8x-8x-11x-11x-11x-11x-4x-4x-4x-4x-1x-1x-1x-1x-|   x2
A|-8x-8x-8x-8x-11x-11x-11x-11x-4x-4x-4x-4x-1x-1x-1x-1x-|
D|-8x-8x-8x-8x-11x-11x-11x-11x-4x-4x-4x-4x-1x-1x-1x-1x-|

(Then this...)
E|---------------|
B|---------------|
G|---------------|
D|-8~-6~-11~-13~-|
A|-8~-6~-11~-13~-|
D|-8~-6~-11~-13~-|

(And back to this part)
E|-----------------------------------------------------|
B|-----------------------------------------------------|
G|-----------------------------------------------------|
D|-8x-8x-8x-8x-11x-11x-11x-11x-4x-4x-4x-4x-1x-1x-1x-1x-|   
A|-8x-8x-8x-8x-11x-11x-11x-11x-4x-4x-4x-4x-1x-1x-1x-1x-|
D|-8x-8x-8x-8x-11x-11x-11x-11x-4x-4x-4x-4x-1x-1x-1x-1x-|

Pre-Chorus:
E|----------|
B|----------|
G|----------|
D|-4~-6~-7~-|
A|-4~-6~-7~-|
D|-4~-6~-7~-|

Chorus:
E|-------------------------------------------------------------------|
B|-------------------------------------------------------------------|
G|-------------------------------------------------------------------|
D|-8-8-8-10-11-11-11-11-4-4-4-4-1-1-1-1-8-8-8-10-11-11-11-11-444-666-|  
A|-8-8-8-10-11-11-11-11-4-4-4-4-1-1-1-1-8-8-8-10-11-11-11-11-444-666-|
D|-8-8-8-10-11-11-11-11-4-4-4-4-1-1-1-1-8-8-8-10-11-11-11-11-444-666-|

E|--------------------------------------------------------------------|
B|--------------------------------------------------------------------|
G|--------------------------------------------------------------------|
D|-8-8-8-10-11-11-11-11-4-4-4-4-1-1-1-1-8-8-8-8-6-6-6-6-111111-131313-|  
A|-8-8-8-10-11-11-11-11-4-4-4-4-1-1-1-1-8-8-8-8-6-6-6-6-111111-131313-|
D|-8-8-8-10-11-11-11-11-4-4-4-4-1-1-1-1-8-8-8-8-6-6-6-6-111111-131313-|

Solo part for Chorus (play on the repeat):
E|------------------------------|
B|-11~-9~-14~-6~-11~-9~---------|
G|------------------------------|
D|----------------------444-666-| <                      11-13
A|----------------------444-666-| <- it's either this or 11-13
D|----------------------444-666-| <                      11-13

Pre-Verse:
E|-------------------------------------------------------|
B|-------------------------------------------------------|
G|-------------------------------------------------------|
D|-8x-8x-4x-4x-6x-6x-3x-3x-3x-1x-8x-8x-4x-4x-6x-6x-7x-7x-|
A|-8x-8x-4x-4x-6x-6x-3x-3x-3x-1x-8x-8x-4x-4x-6x-6x-7x-7x-|
D|-8x-8x-4x-4x-6x-6x-3x-3x-3x-1x-8x-8x-4x-4x-6x-6x-7x-7x-|

Bridge 1:

Solo part 1:
E|----------------------------------|
B|---6-4-6----6-4-2---6-4-6-9-6-4-2-|
G|-3-------3--------3---------------|
D|----------------------------------|
A|----------------------------------|
D|----------------------------------|

Part 2 (of solo):
E|---------------------------------------|
B|---6-4-6----6-4-2---6-4-6-9-6-9-10-11~-|
G|-3-------3--------3--------------------|
D|---------------------------------------|
A|---------------------------------------|
D|---------------------------------------|

Chords:
E|-------------------------------------|
B|-------------------------------------|
G|-------------------------------------|
D|-8-8-8-8-11-11-11-11-3-3-3-3-6-6-6-7-|
A|-8-8-8-8-11-11-11-11-3-3-3-3-6-6-6-7-|
D|-8-8-8-8-11-11-11-11-3-3-3-3-6-6-6-7-|

E|----------------------------------------|
B|----------------------------------------|
G|----------------------------------------|
D|-8-8-8-8-11-11-11-11-3-3-3-3-6-6-6-7-8~-|
A|-8-8-8-8-11-11-11-11-3-3-3-3-6-6-6-7-8~-|
D|-8-8-8-8-11-11-11-11-3-3-3-3-6-6-6-7-8~-|

Bridge 2:
E|-------|
B|-------|
G|-------|
D|-8~-8~-| Keep playing these chords until it's just Ian singing
A|-8~-8~-|
D|-8~-8~-|

Chorus:
E|---------------------------------------------------------------------|
B|---------------------------------------------------------------------|
G|---------------------------------------------------------------------|
D|-8-8-8-10-11-11-11-11-4-4-4-4-1-1-1-1-8-8-8-10-11-11-11-11-4444-6666-| x3 
A|-8-8-8-10-11-11-11-11-4-4-4-4-1-1-1-1-8-8-8-10-11-11-11-11-4444-6666-|
D|-8-8-8-10-11-11-11-11-4-4-4-4-1-1-1-1-8-8-8-10-11-11-11-11-4444-6666-|

E|------------------------------------|
B|------------------------------------|
G|------------------------------------|
D|-8-8-8-10-11-11-11-11---------------|
A|-8-8-8-10-11-11-11-11---------------|
D|-8-8-8-10-11-11-11-11-4-1-4-6-3-6-7-|

Outro/Chorus:
E|---------------------------------------------------------------------|
B|---------------------------------------------------------------------|
G|---------------------------------------------------------------------|
D|-8-8-8-10-11-11-11-11-4-4-4-4-1-1-1-1-8-8-8-10-11-11-11-11-4444-6666-|
A|-8-8-8-10-11-11-11-11-4-4-4-4-1-1-1-1-8-8-8-10-11-11-11-11-4444-6666-|
D|-8-8-8-10-11-11-11-11-4-4-4-4-1-1-1-1-8-8-8-10-11-11-11-11-4444-6666-|

E|-----------------------------------------------------------|
B|-----------------------------------------------------------|
G|-----------------------------------------------------------|
D|-8-8-8-10-11-11-11-11-4-4-4-4-1-1-1-1-8-8-8-10-11-11-11-11-| 
A|-8-8-8-10-11-11-11-11-4-4-4-4-1-1-1-1-8-8-8-10-11-11-11-11-|
D|-8-8-8-10-11-11-11-11-4-4-4-4-1-1-1-1-8-8-8-10-11-11-11-11-|

End on:
E|---------------|
B|---------------|
G|---------------|
D|--4-4-4--6-6-6-|
A|--4-4-4--6-6-6-|
D|--4-4-4--6-6-6-|

If you have any comments or corrections, either say in the comments/correction box 
or tell me on my profile. Enjoy!
Добавлено: 13.08.2013
Другие материалы по этой песне:
  • Аккорды и текст

Страница создана 13.08.2013
http://primanota.ru/lostprophets/if-you-bring-a-gun-well-bring-an-arsenal-chords.htm
Привет, Гость.
Предлагаем пройти революционный курс по гитаре.
Подарок от PrimaNota.Ru, забирай!