PrimaNota.ru - самый крупный в мире бесплатный архив песенных текстов, аккордов, табулатур и нот


Lostprophets - A Town Called Hyprocrisy - таба, видео

Регистрация Запомнить меня
Войти через:  Facebook Google Twitter Vk Yandex Mail.ru

Lostprophets - A Town Called Hyprocrisy - таба, видео

Печатать
Просмотров: 67
Song: Town called Hypocrisy
Artsist: Lostprophets
Album: Liberation Transmission
Tuning: Drop D (dadgbe)
Guitarist 1: Lee Gaze
Guitarist 2: Mike Lewis

h= hammer on


Intro:

Guitar 1
e---------------------------------------------------------|
b---------------------------------------------------------|
g-------------6-6-6------------------6-6-6--------8-6---6-|
d--------------------------8-8-8----------------------8---|
a------------------8-6-8-8-----------------8-6-8-8--------|
d----8-10-10--------------------6-8-8---------------------|

then...

Guitar 2
e--------------------------------------------------------|
b------------8-8---------------8-8--------------8-8------|
g--------6------6-6--------6------6-6---------6-----6-6--|
d----7-7---------------7-7---------------7-7-------------|
a--------------------------------------------------------|
d--------------------------------------------------------|

end with:
e---------|
b---------|
g---6-6---|
d-7-------|
a---------|
d---------|


Verse 1:

Guitar 1
e--------------------------------------------------------------|
b------------------------------------8-8----------------8--5---|
g--------------------------------6-6-----6-6--------6-6--------|
d----------------------------7-7----------------7-7------------|
a--------------------------------------------------------------|
d--------------------------------------------------------------|
can you take this broken boy


e------------------------------------------------------------------|
b------------------------------------8-8-------------88888888--5---|
g--------------------------------6-6-----6-6-----------------------|
d----------------------------7-7----------------7-7----------------|
a------------------------------------------------------------------|
d------------------------------------------------------------------|
and put the pieces back as one

Guitar 2
e-------------------------|
b-------------------------|
g-6-6-6-8-8-8-6-6-6-8-8-8-|
d-6-6-6-8-8-8-6-6-6-8-8-8-|
a-4-4-4-6-6-6-4-4-4-6-6-6-|
d-------------------------|

Pre-Chorus
Play these chords with the vocal rhythm of la la la
e-----------------------------------------------------|
b-----------------------------------------------------|
g-8-8-8-8888888---------------------------------------|
d-8-8-8-8888888-6-6-6-6666666-888-88888888-1010101010-|
a-6-6-6-6666666-4-4-4-4444444-666-66666666-8 8 8 8 8--|
d-----------------------------------------------------|


Chorus
e------------------------------------------------------------|
b------------------------------------------------------------|
g------------------------------------------------------------|
d-88888888888888888888666666666666666633333333333333334444-6-|
a-88888888888888888888666666666666666633333333333333334444-6-|
d-88888888888888888888666666666666666633333333333333334444-6-|

Play Intro for a bit

Verse 2

Only guiatr 2 part from verse 1, pre chorus same as before

Solo

Guiatar 1
e--------------------------------------------------------------------------|
b--------------------------------------------------------------------------|
g-8-----6-----56668-----8-----6-----7--------------------------------------|
d--88868-8108------1168--88868-81010-5h7-7h9-8h10-9h11--7h9-9h11-11h13-3h15|
a--------------------------------------------------------------------------|
d--------------------------------------------------------------------------|

Guitar 2
e--------------------------------------------------------------------------|
b--------------------------------------------------------------------------|
g--------------------------------------------------------------------------|
d-888888886666666633333333444444448888888866666666888899991010101012121212-|
a-888888886666666633333333444444448888888866666666888899991010101012121212-|
d-888888886666666633333333444444448888888866666666888899991010101012121212-|


Breakdown

Play Intro(guiatr 1 only)halfway through


Chorus

Any corrections/ suggestion to olibishop@btinternet.com please e-mail
Добавлено: 07.06.2013
Другие материалы по этой песне:
  • Аккорды и текст

Страница создана 07.06.2013
http://primanota.ru/lostprophets/a-town-called-hyprocrisy-chords.htm
Привет, Гость.
Предлагаем пройти революционный курс по гитаре.
Подарок от PrimaNota.Ru, забирай!