PrimaNota.ru - самый крупный в мире бесплатный архив песенных текстов, аккордов, табулатур и нот


Lostprophets - Well Bring An Arsenal - таба, видео

Регистрация Запомнить меня
Войти через:  Facebook Google Twitter Vk Yandex Mail.ru

Lostprophets - Well Bring An Arsenal - таба, видео

Печатать
Просмотров: 213
Lostprophets - We'll bring an arsenal
Album: Weapons
Tuning: Drop D    DADGBe

My cover of We bring an arsenal:  http://www.youtube.com/watch?v=2yLauz-iQsE&feature=plcp




Intro:
e|-----------------------------------------------------------------------------------------|
B|-----------------------------------------------------------------------------------------|
G|-------------3-3-3-3-3--5--6-6-6-6-6-6---------3-3-3-3-3--5--6-6-6-6-6-6-----------------|
D|---x-x-x-x---3-3-3-3-3--5--6-6-6-6-6-6--4--1---3-3-3-3-3--5--6-6-6-6-6-6----4---6---8~---|
A|---x-x-x-x---1-1-1-1-1--3--4-4-4-4-4-4--4--1---1-1-1-1-1--3--4-4-4-4-4-4----4---6---8~---|
D|---x-x-x-x------------------------------4--1--------------------------------4---6---8~---|
                                          8x 8x                               3x  3x




Bridge:
e|-----------------------------|
B|-----------------------------|
G|---3---5-5-------------------|
D|--------------4~---6~---7~---|
A|--------------4~---6~---7~---|
D|--------------4~---6~---7~---|
     16x




Chours:
e|-----------------------------------------------------------------------|
B|-----------------------------------------------------------------------|
G|---3-3-3-3-3--5--6-6-6-6-6-6---------3-3-3-3-3--5--6-6-6-6-6-6---------|2x
D|---3-3-3-3-3--5--6-6-6-6-6-6--4--1---3-3-3-3-3--5--6-6-6-6-6-6--4--6---|
A|---1-1-1-1-1--3--4-4-4-4-4-4--4--1---1-1-1-1-1--3--4-4-4-4-4-4--4--6---|
D|------------------------------4--1------------------------------4--6---|
                                8x 8x                             3x 3x




     e|-------------------------------------------------|
     B|-------------------------------------------------|
Then G|-------------------------------------------------|
     D|---8-8--4-4--6-6--3-3--3-1---8-8--4-4--6-6--7~---|
     A|---8-8--4-4--6-6--3-3--3-1---8-8--4-4--6-6--7~---|
     D|---8-8--4-4--6-6--3-3--3-1---8-8--4-4--6-6--7~---|




Bridge:
e|-----------------------------|
B|-----------------------------|
G|---3---5-5-------------------|
D|--------------4~---6~---7~---|
A|--------------4~---6~---7~---|
D|--------------4~---6~---7~---|
     16x





Chours:
e|-----------------------------------------------------------------------|
B|-----------------------------------------------------------------------|
G|---3-3-3-3-3--5--6-6-6-6-6-6---------3-3-3-3-3--5--6-6-6-6-6-6---------|2x
D|---3-3-3-3-3--5--6-6-6-6-6-6--4--1---3-3-3-3-3--5--6-6-6-6-6-6--4--6---|
A|---1-1-1-1-1--3--4-4-4-4-4-4--4--1---1-1-1-1-1--3--4-4-4-4-4-4--4--6---|
D|------------------------------4--1------------------------------4--6---|
                                8x 8x                             3x 3x





     e|-------------------------------------------------|
     B|-------------------------------------------------|
Then G|-------------------------------------------------|
     D|---8-8--4-4--6-6--3-3--3-1---8-8--4-4--6-6--7~---|
     A|---8-8--4-4--6-6--3-3--3-1---8-8--4-4--6-6--7~---|
     D|---8-8--4-4--6-6--3-3--3-1---8-8--4-4--6-6--7~---|




Solo:
e|----------------------------------------------------------------------------|
B|------6--4--6-----6--4--2-----6--4--6--9--6--4--2-----6--4--6-----6--4--2---|
G|---3-----------3-----------3-----------------------3-----------3------------|
D|----------------------------------------------------------------------------|
A|----------------------------------------------------------------------------|
D|----------------------------------------------------------------------------|




e|----------------------------------|
B|------6--4--6--9--6--9--10--11~---|
G|---3------------------------------|
D|----------------------------------|
A|----------------------------------|
D|----------------------------------|




Bridge 2:
e|-------------|
B|-------------|
G|-------------|
D|---3~---3~---|
A|---3~---3~---|
D|---1~---1~---|




Outro:
e|-----------------------------------------------------------------------|
B|-----------------------------------------------------------------------|
G|---3-3-3-3-3--5--6-6-6-6-6-6---------3-3-3-3-3--5--6-6-6-6-6-6---------|
D|---3-3-3-3-3--5--6-6-6-6-6-6--4--1---3-3-3-3-3--5--6-6-6-6-6-6--4--6---|
A|---1-1-1-1-1--3--4-4-4-4-4-4--4--1---1-1-1-1-1--3--4-4-4-4-4-4--4--6---|
D|------------------------------4--1------------------------------4--6---|
                                8x 8x                             8x 8x




e|------------------------------------------------------------------------------------|
B|------------------------------------------------------------------------------------|
G|---3-3-3-3-3--5--6-6-6-6-6-6---------3-3-3-3-3--5--6-6-6-6-6-6----------------------|
D|---3-3-3-3-3--5--6-6-6-6-6-6--4--1---3-3-3-3-3--5--6-6-6-6-6-6----------------------|
A|---1-1-1-1-1--3--4-4-4-4-4-4--4--1---1-1-1-1-1--3--4-4-4-4-4-4----------------------|
D|------------------------------4--1-------------------------------4--1--6--3--6--7---|
                                8x 8x




e|--------------------------------------------------------------------------|
B|--------------------------------------------------------------------------|
G|---3-3-3-3-3--5--6-6-6-6-6-6---------3-3-3-3-3--5--6-6-6-6-6-6------------|
D|---3-3-3-3-3--5--6-6-6-6-6-6--4--1---3-3-3-3-3--5--6-6-6-6-6-6--4--6------|
A|---1-1-1-1-1--3--4-4-4-4-4-4--4--1---1-1-1-1-1--3--4-4-4-4-4-4--4--6------|
D|------------------------------4--1------------------------------4--6------|
                                8x 8x                             8x 8x




e|-----------------------------------------------------------------------|
B|-----------------------------------------------------------------------|
G|---3-3-3-3-3--5--6-6-6-6-6-6---------3-3-3-3-3--5--6-6-6-6-6-6---------|
D|---3-3-3-3-3--5--6-6-6-6-6-6--4--1---3-3-3-3-3--5--6-6-6-6-6-6--4--6---|
A|---1-1-1-1-1--3--4-4-4-4-4-4--4--1---1-1-1-1-1--3--4-4-4-4-4-4--4--6---|
D|------------------------------4--1------------------------------4--6---|
                                8x 8x                             3x 3x
Добавлено: 07.09.2013
Другие материалы по этой песне:

Страница создана 14.07.2013
http://primanota.ru/lostprophets/well-bring-an-arsenal-chords.htm
Привет, Гость.
Предлагаем пройти революционный курс по гитаре.
Подарок от PrimaNota.Ru, забирай!