PrimaNota.ru - самый крупный в мире бесплатный архив песенных текстов, аккордов, табулатур и нот


Los Lobos - Welcome To Dirt - таба, видео

Регистрация Запомнить меня
Войти через:  Facebook Google Twitter Vk Yandex Mail.ru

Los Lobos - Welcome To Dirt - таба, видео

Печатать
Просмотров: 165
-------------------------------------------------------------------------------
                                          WELCOME TO DIRT (Rango Soundtrack)- Los Lobos 

-------------------------------------------------------------------------------
Title: Welcome To Dirt
SubTitle: Rango Soundtrack
Artist: Hans Zimmer
Tabbed by: 2ris2
Tempo = 120
Steel Guitar

E|----------------|----------------------------|----------------------------|
B|-----------1----|--3s-5--------3-------------|--------3g-------3g---------|
G|-----0--2-------|--------------2-------------|--------2g-------2g---------|
D|----------------|----------------------------|----------------------------|
A|----------------|----------------------------|----------------------------|
E|----------------|----------------------------|----------------------------|

----------------|-------|-------|----------------|-------|----------------|
--------1--3----|--1----|--3----|-----------1L---|--1----|-----1----------|
--0--2----------|--0----|--0----|--0--------0L---|--0----|--2--2--0-------|
----------------|--2----|--5----|-----------2L---|--2----|--------2-------|
----------------|-------|-------|-----------3L---|--3----|--------3-------|
----------------|-------|-------|----------------|-------|----------------|


--0g-0g---|----------------|--0g-0g---|----------------------------|
----------|-----1----------|----------|--------1h-0----------------|
--2g-2g---|--2--2--0-------|--2g-2g---|--0h-2--------2--------2----|
----------|--------2-------|----------|--------------------2-------|
----------|--------3-------|----------|--------------0-------------|
----------|----------------|----------|----------------------------|


----------------------------|----------------------------|
--------------1-------------|--------1-------------------|
-----------2-----------0h---|--2-----------0--------0----|
--------2-----------2-------|--------------------2-------|
--0-------------------------|----------------------------|
----------------------------|--------------0-------------|


----------------------------|----------------------------|
--------------1-------------|--------1-----3--------3----|
-----------0-----------0h---|--2-----------------2-------|
--------2-----------2-------|--------------0-------------|
--3-------------------------|----------------------------|
----------------------------|----------------------------|


----------------------------|----------------------------|
--------------3-------------|--3s-5--3--1----------------|
-----------2----------------|--------------2--------2----|
--------0-------------------|--------------------2-------|
--0-------------------------|--------------0-------------|
----------------------------|----------------------------|


----------------------------|----------------------------|
--------------1h-0----------|--------1h-0----------------|
-----------2----------------|--0h-2--------2--------2----|
--------2-------------------|--------------------2-------|
--0-------------------------|--------------0-------------|
----------------------------|----------------------------|


----------------------------|----------------------------|
--------------1-------------|--------1-------------------|
-----------2-----------0h---|--2-----------0--------0----|
--------2-----------2-------|--------------------2-------|
--0-------------------------|----------------------------|
----------------------------|--------------0-------------|


----------------------------|----------------------------|
--------------1-------------|--------1-----3--------3----|
-----------0-----------0h---|--2-----------------2-------|
--------2-----------2-------|--------------0-------------|
--3-------------------------|----------------------------|
----------------------------|----------------------------|


----------------------------|----------------------------|
--------------3-------------|--3s-4--3--1----------------|
-----------2----------------|--------------2--------2----|
--------0-------------------|--------------------2-------|
--0-------------------------|--------------0-------------|
----------------------------|----------------------------|


----------------------------|----------------------------|
--------------1h-0----------|--------1h-0----------------|
-----------2----------------|--0h-2--------2--------2----|
--------2-------------------|--------------------2-------|
--0-------------------------|--------------0-------------|
----------------------------|----------------------------|


----------------------------|----------------------------|
--------------1-------------|--------1-------------------|
-----------2-----------0h---|--2-----------0--------0----|
--------2-----------2-------|--------------------2-------|
--0-------------------------|----------------------------|
----------------------------|--------------0-------------|


----------------------------|----------------------------|
--------------1-------------|--------1-----3--------3----|
-----------0-----------0h---|--2-----------------2-------|
--------2-----------2-------|--------------0-------------|
--3-------------------------|----------------------------|
----------------------------|----------------------------|


----------------------------|----------------------------|
--------------3-------------|--3s-5--3--1----------------|
-----------2----------------|--------------2--------2----|
--------0-------------------|--------------------2-------|
--0-------------------------|--------------0-------------|
----------------------------|----------------------------|


----------------------------|
--------------1-------------|
-----------2----------------|
--------2-------------------|
--0-------------------------|
----------------------------|


--------------------------0-------------------------||
--0h-1h-0-----0-----------1-------------------------||
--------------------------2-------------------------||
--------------------------2-------------------------||
--------------------------0-------------------------||
----------------------------------------------------||
************************************

LEGEND:

L - tied note
x - dead note
h - hammer on/pull off
b - bend
s - slide
~ - vibrato
g - ghost note
> - accentuated note
t - trill
M - palm mute
. - staccato
P - popping (bass)
S - slapping (bass)
+ - tapping
W - wide vibrato
< - fade in
w - whammy bar
= - tremolo picking
v - brush up
^ - brush down
V - pick stroke up
n - pick stroke down
************************************

Listen to the acutal song if you have some trouble with timing.
http://www.youtube.com/watch?v=Uwhplyqg4XU&feature=related

Have fun jamming :D
Добавлено: 31.07.2012
Другие материалы по этой песне:
  • Аккорды и текст

Страница создана 31.07.2012
http://primanota.ru/los-lobos/welcome-to-dirt-chords.htm
Привет, Гость.
Предлагаем пройти революционный курс по гитаре.
Подарок от PrimaNota.Ru, забирай!