PrimaNota.ru - самый крупный в мире бесплатный архив песенных текстов, аккордов, табулатур и нот


Los Lobos - La Cancion Del Mariachi - таба, видео

Регистрация Запомнить меня
Войти через:  Facebook Google Twitter Vk Yandex Mail.ru

Los Lobos - La Cancion Del Mariachi - таба, видео

Печатать
Просмотров: 121
-------------------------------------------------------------------------------
                           La Cancion del mariachi - Los lobos 
-------------------------------------------------------------------------------
Hello everybody, this is my first tab ever. 
I couldn't find a tab that sounded good enough, so I decided to tab it on my own. The song is not 100% correct,
but it sounds really good once you get up to speed. Let me know what you think and feel free to add and edit 
parts of it!. Good luck!

P.S. Here is a link to what this tab approximately sounds like with both the lead and
rythm guitars: 

https://youtu.be/mUXM_BQTWCU


Tabbed by:Uri5711
E-mail:Uri5711@GMAIL.COM

Tuning: Standard


Chords:
Intro:            B7-Em
verses/solo:      Em-B7-Em
chorus:           Am-Em-B7-Em


Intro

You can also do it without the hammer/pulloffs. Depending on how you want to make it sound

e|---------------------------------------------------------------------------|
B|---------------------------------------------------------------------------|
G|---------------------------------------------------------------------------|
D|---------------------------------------------------------------------------|
A|--2--h3p2p0h2---0----------------------------------------------------------|
E|--------------3---2h3p2--0-------------------------------------------------|

e|------------------------------------------------------------------------|
B|--------------0-0-----0---1-0-0----1-0-0--------------------------------|
G|--------0-----0-0-----0---2-0-0----2-0-0-----2--------------------------|
D|------2-----------------2--------2-------2---4--------------------------|
A|----2----------------------------------------2--------------------------|
E|--0---------------------------------------------------------------------|

e|-----------------------------------------------------------------------0--|
B|-----------------------------1---1----0---0----------------------------0--|
G|------2-2--2-----4--2----------2--------0-----2---2---0---0---------0--0--|
D|----4-4-4--4--4-(4)-2---------------------------4-------2----4---4-----2--|
A|--2------------------------------------------------------------6-------2--|
E|-----------------------------------------------------------------------0--|

Main Riff

e|-------7-7--7-7--8-7--7----8-7-7----5---- 5-5--5-5-7-5--5-5-7-5-5---------|
B|-----8-8-8--8-8--8-8--8----8-8-8----7--- -7-7--7-7-8-7--7-7-8-7-7--7---8--|
G|---9--------------------9--------9\-----7--------------------------8---9--|
D|-9------------------------------------------------------------------------|
A|--------------------------------------------------------------------------|
E|--------------------------------------------------------------------------|

(all of these are riffs that are played during the song. listen
to the song and play them accordingly.)
 
Soy un hombre muy honrado
que le gusta lo mejor, 

e|----------7--------|
B|-------7-----------|
G|-----8-------------|
D|---9---------------|
A|-------------------|
E|-------------------|

Las mujeres no me faltan, ni el dinero , ni el amor.

e|--8-7-------------|
B|------10-8-7------|
G|-------------9----|
D|------------------|
A|------------------|
E|------------------|

Jineteando en mi caballo, por la sierra yo me voy. Las estrellas y la luna ellas me dicen donde voy.

e|------8-7-------8-7-----7------8-7----------|
B|-7h10------7h10-----------7h10--------------|
G|-----------------------------------9--------|
D|--------------------------------------------|
A|--------------------------------------------|
E|--------------------------------------------|

Ay, ay, ay, ay!
ay, ay, mi amor

e|--8-5-0--8-5--8-7----7-7----7-5---5-5---5-7--------------------------------|
B|------------------8------8------7-----7-----8-5-8-5-8----------------------|
G|---------------------------------------------------------------------------|
D|---------------------------------------------------------------------------|
A|---------------------------------------------------------------------------|
E|---------------------------------------------------------------------------|

ay mi morena, de mi corazon

e|--8-5-0--8-5--8-7----7-7----7-5-----5-----------------------------------|
B|------------------8------8------7-8----8-7-5----------------------------|
G|------------------------------------------------------------------------|
D|------------------------------------------------------------------------|
A|------------------------------------------------------------------------|
E|------------------------------------------------------------------------|


****Main Riff

Me gusta tocar guitarra,
me gusta cantar el son, 

(inset B major x 6 and end with the following riff)

                  e|--8-7-------------|
                  B|------10-8-7------|
  B major x 6     G|-------------9----|...el mariachi me acompana cuando canto mi cancion
                  D|------------------|
                  A|------------------|
                  E|------------------|


Me gusta tomar mis copas, agua ardiente es lo mejor, 
tambien el tequila blanco con su sal le da sabor.

e|------8-7-------8-7-----7------8-7----------|
B|-7h10------7h10-----------7h10--------------|
G|-----------------------------------9--------|
D|--------------------------------------------|
A|--------------------------------------------|
E|--------------------------------------------|


Again play:
Ay, ay, ay, ay!
ay, ay, mi amor

e|--8-5-0--8-5--8-7----7-7----7-5---5-5---5-7--------------------------------|
B|------------------8------8------7-----7-----8-5-8-5-8----------------------|
G|---------------------------------------------------------------------------|
D|---------------------------------------------------------------------------|
A|---------------------------------------------------------------------------|
E|---------------------------------------------------------------------------|

ay mi morena, de mi corazon

e|--8-5-0--8-5--8-7----7-7----7-5-----5--------/7--------------->continued
B|------------------8------8------7-8----8-7-5----------------------------|
G|------------------------------------------------------------------------|
D|------------------------------------------------------------------------|
A|------------------------------------------------------------------------|
E|------------------------------------------------------------------------|


Solo

e|-(/7)---7--12p7---7---7----11p7-----7---7------11p7-----7---7----12p7----7--7--|
B|------8---------8---0------------10---0-------------10----0------------8--0----|
G|-------------------------------------------------------------------------------|
D|-------------------------------------------------------------------------------|
A|-------------------------------------------------------------------------------|
E|-------------------------------------------------------------------------------|

e|--12p7---7---7----11p7----7------11p7----7----11p7---7----12p7----7----12p7---7-----|
B|-------8---0-----------10---0---------10---0------10---0--------8--0--------8---0---|
G|------------------------------------------------------------------------------------|
D|------------------------------------------------------------------------------------|
A|------------------------------------------------------------------------------------|
E|------------------------------------------------------------------------------------|

e|12p7---7--7---10p7-10-8----8-7---7-/5---5-/3---3-/2---2--0----0----------|
B|-----8---8--------------10-----8------7------5------3-------1---3--0-1-0-|
G|-------------------------------------------------------------------------|
D|-------------------------------------------------------------------------|
A|-------------------------------------------------------------------------|
E|-------------------------------------------------------------------------|

e|------------------------------------|
B|-0---0--1p0-------------------------|
G|---2--------2p0-----2p0-------------|
D|----------------4p0-----4p0---------|
A|-----------------------------3p0-2~-|
E|------------------------------------|

e|---------------------------------------7--------------------|
B|----------7---------7-7h8----------7-----10--8-10-8-7-------|
G|------8-9---------9------------8-9--------------------9~----|
D|--9-9---------9-9----------9-9------------------------------|
A|------------------------------------------------------------|
E|------------------------------------------------------------|

me gusta tocar guitarra, me gusta cantar el son.

e|--7h8p7------------7-------|
B|--------10-8-7-------------|
G|---------------9-8---------|
D|---------------------------|
A|---------------------------|
E|---------------------------|

el mariachi me acompana cuando canto mi cancion!... 
Me gustan tomar mis copas, agua ardiente es lo mejor, 
tambien el tequila blanco con su sal le da sabor. 


ay, ay, ay, ay, 
ay, ay, mi amor, 
ay mi morena, 
de mi corazon!! 

(here you can play the same tab as before or just play the chords and end with tremolo struming on :
      Tremolo 
e|--12-12-12-12----|
B|--12-12-12-12----|
G|-----------------|
D|-----------------|
A|-----------------|
E|-----------------|





************************************

| /   slide up
| \   slide down
| h   hammer-on
| p   pull-off
| ~   vibrato
| +   harmonic
| x   Mute note
| b   Bend
| pb  Pre-bend
| br  Bend release
| pbr Pre-bend release
| brb Bend release bend

************************************
Добавлено: 04.12.2015
Вам также может быть интересно:
Другие материалы по этой песне:
  • Аккорды и текст

Страница создана 04.12.2015
http://primanota.ru/los-lobos/la-cancion-del-mariachi-chords.htm
Привет, Гость.
Предлагаем пройти революционный курс по гитаре.
Подарок от PrimaNota.Ru, забирай!