PrimaNota.ru - самый крупный в мире бесплатный архив песенных текстов, аккордов, табулатур и нот


Los Lobos - Walk Dont Rango - таба, видео

Регистрация Запомнить меня
Войти через:  Facebook Google Twitter Vk Yandex Mail.ru

Los Lobos - Walk Dont Rango - таба, видео

Печатать
Просмотров: 882
-----------------------------------------------------------------------------
                   Walk don't rango - Los lobos & Arturo Sandoval
-----------------------------------------------------------------------------

Song from the motion picture "Rango"

Legend

h - hammer on

p - pull off

~ - vibrato

b - bending ( to the indicate tone, "b" alone means 1/4 bending)

/ - slide up

\ - slide down (various "\" or "/" means a slide with tremolo picking)

r - release bend

. - staccato


e|---------------------------------------------------------------------------|
B|---------------------------------------------------------------------------|
G|---------------------------------------------------------------------------|
D|---------------------------------------------------------------------------|
A|-----------------------------------------------------0-2-2-----------------|
E|-12\-0-0-0-0-0-0-0-0-0-0-0-0-0-0-0-0----0--0--0-3-3---------3-0------------|


e|---------------------------------------------------------------------------|
B|------------------------------------------------------------------0--------|
G|------------------------------------------------------------------0--------|
D|------------------------0-2-2-------------------------------------2--------|
A|------------0-2brb------------3-0--3-5-5-3\2----------------------2--------|
E|0--0--0-3-3----------------------------------0-2-3--3-0--0-0-3--0-0--------|

e|---------------------------------------------------------------------------|
B|-------------------------10-12-12----------------------------10-12brb------|
G|----12\---9--9--9-12-12------------12-9--------9--9--9-12-12---------------|
D|----12\--------------------------------------------------------------------|
A|---------------------------------------------------------------------------|
E|---------------------------------------------------------------------------|


e|--10-12-12-----------------------------------------------------------------|
B|-------------13-10~---13-15-15-13\12-----10-13-12--------------0-----------|
G|---------------------------------------------------11-12-9---9-0-----------|
D|---------------------------------------------------------------2-----------|
A|---------------------------------------------------------------2-----------|
E|---------------------------------------------------------------0-----------|

e|---------------------------------------------------------------------------|
B|---------------------------------------------------------------------------|
G|-------------------------------------6-6.---6------6-6.---6----------------|
D|-------------------------------------6-6.---6------6-6.---6----------------|
A|-------------------------------------4-4.-x-4------4-4.-x-4----------------|
E|-0-0-0-0-0-1-1-1-3-3-3-5-5-5-7-7-7-----------------------------------------|

e|---------------------------------------------------------------------------|
B|---------------------------------------------------------------------------|
G|--4-4.---4------4-4.---4----5-5.---5-----5-5.---5-------6-6.---5\----------|
D|--4-4.---4------4-4.---4----5-5.---5-----5-5.---5-------6-6.---5\----------|
A|--2-2.-x-2------2-2.-x-2----3-3.-x-3-----3-3.-x-3-------4-4.-x-3\----------|
E|---------------------------------------------------------------------------|


e|---------------------------------------------------------------------------|
B|---------------------------------------------------------------------------|
G|-----5-5.---4\-------------------------------------------------------------|
D|-----5-5.---4\-------------------------------------------------------------|
A|-----3-3.-x-2\-------------------------------------------------------------|
E|---------------------------------------------------------------------------|


e|---------------------------------------------------------------------------|
B|-----------------------------10-12-12----------------------------10-12brb--|
G|--12-12-12\---9--9--9-12-12------------12-9--------9--9--9-12-12-----------|
D|--12-12-12\----------------------------------------------------------------|
A|---------------------------------------------------------------------------|
E|---------------------------------------------------------------------------|


e|--10-12-12-----------------------------------------------------------------|
B|-------------13-10~---13-15-15-13\12-----10-13-12--------------------------|
G|---------------------------------------------------11-12-9---9-8h9p8h9p8h9-|
D|---------------------------------------------------------------------------|
A|---------------------------------------------------------------------------|
E|---------------------------------------------------------------------------|


e|---------------------------------------------------------------------------|
B|---------------------------------------------------------------------------|
G|-------------------------------------6-6.---6------6-6.---6----------------|
D|-------------------------------------6-6.---6------6-6.---6----------------|
A|-------------------------------------4-4.-x-4------4-4.-x-4----------------|
E|-0-0-0-0-0-1-1-1-3-3-3-5-5-5-7-7-7-----------------------------------------|

e|---------------------------------------------------------------------------|
B|---------------------------------------------------------------------------|
G|--4-4.---4------4-4.---4----5-5.---5-----5-5.---5-------6-6.---5\----------|
D|--4-4.---4------4-4.---4----5-5.---5-----5-5.---5-------6-6.---5\----------|
A|--2-2.-x-2------2-2.-x-2----3-3.-x-3-----3-3.-x-3-------4-4.-x-3\----------|
E|---------------------------------------------------------------------------|


e|---------------------------------------------------------------------------|
B|--------------------------0----------0-------------------------------------|
G|-----5-5.---4\------------0----------0-------------------------------------|
D|-----5-5.---4\------------2----------2-------------------------------------|
A|-----3-3.-x-2\------------2----------2-------------------------------------|
E|--------------------------0----------0-------------------------------------|



e|---------------------------------------------------------------------------|
B|---------------------------------------------------------------------------|
G|---------------------------------------------------------------------------|
D|-------------------------------------------------0-2-2-0-------------------|
A|---------0-2--2-0----------------------------0-2---------------------------|
E|-0-2-2-3-----------3-0-*whammy*------0-2-2-3-------------------------------|


e|---------------------------------------------------------------------------|
B|---------------------------------------------------------------------------|
G|---------------------------------------------------------------------------|
D|---0-2-2-------------------------------------------------------------------|
A|---------3-0--0-2-2--------------------------------------------------------|
E|--------------------3-0--------0-2-3--3-0--0-0-3---------------------------|

e|---------------------------------------------------------------------------|
B|---------------------------------------------------------------------------|
G|-------------------------------------6-6.---6------6-6.---6----------------|
D|-------------------------------------6-6.---6------6-6.---6----------------|
A|-------------------------------------4-4.-x-4------4-4.-x-4----------------|
E|-0-0-0-0-0-1-1-1-3-3-3-5-5-5-7-7-7-----------------------------------------|

e|---------------------------------------------------------------------------|
B|---------------------------------------------------------------------------|
G|--4-4.---4------4-4.---4----5-5.---5-----5-5.---5-------6-6.---5\----------|
D|--4-4.---4------4-4.---4----5-5.---5-----5-5.---5-------6-6.---5\----------|
A|--2-2.-x-2------2-2.-x-2----3-3.-x-3-----3-3.-x-3-------4-4.-x-3\----------|
E|---------------------------------------------------------------------------|


e|---------------------------------------------------------------------------|
B|---------------------------------0-----------------------------------------|
G|-----5-5.---4\-------------------0-----------------------------------------|
D|-----5-5.---4\-------------------2-----------------------------------------|
A|-----3-3.-x-2\-------------------2-----------------------------------------|
E|---------------------------------0-----------------------------------------|



e|---------------------------------------------------------------------------|
B|---------------------------------------------------------------------------|
G|---------------------------------------------------------------------------|
D|---------------------------------------------------------------------------|
A|---------------------------------------------------------------------------|
E|-------10h12-12-12-12--10h12-12-12-12--12-12-12-12-12-12-12-12-12-12-12-12-|

e|---------------------------------------------------------------------------|
B|---------------------------------------------------------------------------|
G|---------------------------------------------------------------------------|
D|---------------------------------------------------------------------------|
A|---------------------------------------------------------------------------|
E|-15-15-15-15-15-15-17-17-17-17-17-17-18-18-18-18-18-18-18-18-20-20-20-20---|



e|---------------------------------------------------------------------------|
B|---------------------------------------------------------------------------|
G|---------------------------------------------------------18b19-18b19-18b19-|
D|----------------------------------------19---------19----19b20-19b20-19b20-|
A|---------------------------------21b22------21b22--------------------------|
E|-22-22-22-22-22-22-22-22-22-22---------------------------------------------|


e|---------------------------------------------------------------------------|
B|-----------------------------------------16---16----16---------------------|
G|------18b20--18b20r--18b20--18b20r-------16---16----16---------------------|
D|--------------------------------------17----17---17------------------------|
A|---------------------------------------------------------------------------|
E|---------------------------------------------------------------12////1-----|

e|---------------------------------------------------------------------------|
B|---------------------------------------------------------------------------|
G|---------------------------------------------------------------------------|
D|---------------------------------------------------------------------------|
A|---------------------------------------------------------------------------|
E|-12-12-12-12-12-12-12-12-12-12-12-12-12-12-12-12-12-12--12-12-12-12-12-12--|

e|---------------------------------------------------------------------------|
B|---------------------------------------------------------------------------|
G|---------------------------------------------------------------------------|
D|---------------------------------------------------------------------------|
A|---------------------------------------------------------------------------|
E|-15-15-15-15-15-15-17-17-17-17-17-17-18-18-18-18-18-18-18-18-20-20-20-20---|

e|---------------------------------------------------------------------------|
B|--------------0---------------0--------------------------------------------|
G|--12\\\\--1/2-0-----------1/2-0--------------------------------------------|
D|--12\\\\--1/2-2--x3-------1/2-2-----*until the song ends*------------------|
A|--------------2---------------2--------------------------------------------|
E|--------------0---------------0--------------------------------------------|
Добавлено: 17.07.2012
Другие материалы по этой песне:
  • Аккорды и текст

Страница создана 17.07.2012
http://primanota.ru/los-lobos/walk-dont-rango-chords.htm
Привет, Гость.
Предлагаем пройти революционный курс по гитаре.
Подарок от PrimaNota.Ru, забирай!