PrimaNota.ru - самый крупный в мире бесплатный архив песенных текстов, аккордов, табулатур и нот


Los Lobos - Mas Y Mas - таба, видео

Регистрация Запомнить меня
Войти через:  Facebook Google Twitter Vk Yandex Mail.ru

Los Lobos - Mas Y Mas - таба, видео

Печатать
Просмотров: 291
Уроки эстрадного вокала в Санкт-Петербурге
                             Mas Y Mas - Los Lobos
Tabbed by: Barela
Email: mariache6@hotmail.com

Tuning: Standard

Intro:  Piercing Overdrive

e|------------------------------10----------------------------------10-------|
B|---------11^----------11------11^-------------11^----------11-----11^------|
G|--12--12--------12-12---12-------------12--12--------12-12---12------------|
D|---------------------------------------------------------------------------|
A|---------------------------------------------------------------------------|
E|---------------------------------------------------------------------------|

e|------------------------------10---------------10-----------10-------------|
B|---------11^----------11------11^--------------11^----------11^------------|
G|--12--12--------12-12---12-------------12--12--------12--12----------------|
D|---------------------------------------------------------------------------|
A|---------------------------------------------------------------------------|
E|---------------------------------------------------------------------------|

Guitar lick after intro before the Verse
e|--------10-----------------------------------------------------------------|
B|--------11^----------------------------------------------------------------|
G|--12--12-----12--10--------------------------------------------------------|
D|---------------------12\10--8----------------------------------------------|
A|---------------------------------------------------------------------------|
E|---------------------------------------------------------------------------|

Run #1 Play several times during verses-Palm mute with slight Pinch Harmonics
e|---------------------------------------------------------------------------|
B|---------------------5---3^------------------------------------------------|
G|---------------------5---3^------------------------------------------------|
D|--5--3--5---5-3-5-3--------------------------------------------------------|
A|---------------------------------------------------------------------------|
E|---------------------------------------------------------------------------|

Chord Run: Played after the Chorus: Simple Chord run from G to D
e|--3--4--5--6--7--8--9---10-------------------------------------------------|
B|--3--4--5--6--7--8--9---10-------------------------------------------------|
G|--4--5--6--7--8--9--10--11-------------------------------------------------|
D|--5--6--7--8--9--10-11--12-------------------------------------------------|
A|--5--6--7--8--9--10-11--12-------------------------------------------------|
E|---------------------------------------------------------------------------|

Run #2  play after first Chord Runs and during first and second solos
e|---------------------------------------------------------------------------|
B|--7-7---5-(5)\3------3--5--------------------------------------------------|
G|--7-7---5-(5)\3------3--5--------------------------------------------------|
D|-------------------5-------------------------------------------------------|
A|---------------------------------------------------------------------------|
E|---------------------------------------------------------------------------|


SOLOS:  Improvise Minor and Major G Pentatonic scales:

Song Sequence:
Intro        Play Intro Run twice
First Verse  Play Run #1 several times
Chorus       Play Chord Run then Run #2
Second Verse Play Run #1
Chorus       Play Chord Run
Intro        Play Intro once
Solo(1)      Play Run #1 and #2 throughout solo
Chorus       Play Chord Run
Intro        Play Intro twice
Solo(2)      Play Run #2 throughout
Ending       Fade out or Crash ending

If this tab helped you out please leave positive ratings or comments.

Thank You   Barela

************************************

| /   slide up
| \   slide down
| h   hammer-on
| p   pull-off
| ~   vibrato
| +   harmonic
| x   Mute note
| b   Bend
| pb  Pre-bend
| br  Bend release
| pbr Pre-bend release
| brb Bend release bend
Добавлено: 28.04.2012
Другие материалы по этой песне:
  • Аккорды и текст

Страница создана 28.04.2012
http://primanota.ru/los-lobos/mas-y-mas-chords.htm
Привет, Гость.
Предлагаем пройти революционный курс по гитаре.
Подарок от PrimaNota.Ru, забирай!