PrimaNota.ru - самый крупный в мире бесплатный архив песенных текстов, аккордов, табулатур и нот


Los Lobos - Imploración - аккорды и текст, видео

Регистрация Запомнить меня
Войти через:  Facebook Google Twitter Vk Yandex Mail.ru

Los Lobos - Imploración - аккорды и текст, видео

Печатать
Просмотров: 115
Уроки эстрадного вокала в Санкт-Петербурге
Imploración
Los Lobos
Hi everyone, I noticed that a lot of the older spanish songs by Los Lobos seem to go un-tabbed. As such, I kinda
sadden when I couldn't find a tab or chords for that matter of Imploración by them so I though I'd give it a 
shot. The intro sounds right, but the chords are a bit iffy but they work. Hope you all enjoy it!

If you see any mistakes, feel free to make the necessary changes if needed. 


Intro: 0:00
                        Am             D                  Am                              G

e|-10--12--10--12--10--12-12-12-12----10--12--10--12--10--12-12-12-12----10--12--10-9-10/14-14-14-14-14-14-14\
B|------------------------------------------------------------------------------------------------------------
G|------------------------------------------------------------------------------------------------------------
D|------------------------------------------------------------------------------------------------------------
A|------------------------------------------------------------------------------------------------------------
E|------------------------------------------------------------------------------------------------------------

                                                A                            Em         A              D

e|-12-12-12-12-12-12-12--------10------10--10-10\9-9-9-9------9------9--9-9\7-7-7-7---9--10--9--10--9/12-12-12
B|-------------------------12------12----------------------10----10-------------------------------------------
G|------------------------------------------------------------------------------------------------------------
D|------------------------------------------------------------------------------------------------------------
A|------------------------------------------------------------------------------------------------------------
E|------------------------------------------------------------------------------------------------------------

                            A

e|-12-12-12-12-12\10--7--7--5----------------------------------------------------------------------------------
B|-------------------------------------------------------------------------------------------------------------
G|-------------------------------------------------------------------------------------------------------------
D|-------------------------------------------------------------------------------------------------------------
A|-------------------------------------------------------------------------------------------------------------
E|-------------------------------------------------------------------------------------------------------------



Intro: (The chord intro starts around 0:02, should probably refer to the top to see where chord placements go
 in the song) : Am D Am D G A Em A D A

            D      Em    F#m
Una imploración te pido señor

Bm           Em         A
si es que te he ofendido

           Em                  A
Es que mi amor no es fiel para quién

          D
lo tiene merecido

                      Em        F#m
Si desconfiado soy y maldigo el amor 

   Em         D          A
de todas las mujeres
  
           Em                A
es que mi amor es una imploración

          D
por sus locos quereres
   
              Am     D        Em
No conocí el amor y fui a la perdición

                G
por sus falsos placeres

           A                     Em
Perdóname señor si desconfiado soy

              D
de todas las mujeres.




After this, the song essentially repeats with the intro and so on. 


I hope you guys like it. (:

Добавлено: 04.12.2015
Другие материалы по этой песне:
  • Аккорды и текст

Страница создана 04.12.2015
http://primanota.ru/los-lobos/imploracion-chords.htm
Привет, Гость.
Предлагаем пройти революционный курс по гитаре.
Подарок от PrimaNota.Ru, забирай!