PrimaNota.ru - самый крупный в мире бесплатный архив песенных текстов, аккордов, табулатур и нот


Los Lobos - Come On Lets Go - текст песни, таба, бас-таба, видео

Регистрация Запомнить меня
Войти через:  Facebook Google Twitter Vk Yandex Mail.ru

Los Lobos - Come On Lets Go - текст песни, таба, бас-таба, видео

Печатать
Просмотров: 229
Уроки эстрадного вокала в Санкт-Петербурге
COME ON, LET'S GO

As recorded by Los Lobos
(From the 1987 Album LA BAMBA)

Words and Music by Ritchie Valens
Arranged by Los Lobos

Transcribed by Slowhand


Gtr I (E A D G B E) - 'David Hidalgo - Electric Guitar'
Gtr II (E A D G B E) - 'Cesar Rosas - Electric Guitar'


   Intro
    Q=176
    A                  D       E
   4/4
    Gtr I (El. Gtr.)
    Q  E E +E  E E E   E E E E E E E E  3x
||--0----0-(0)-0-0-0-|-2---2---0-0-0-0--||
||o-2----2-(2)-2-2-0-|-3---3---0-0-0-0-o||
||--2----2-(2)-2-2-0-|-2---2---1-1-1-1--||
||--2----2-(2)-2-2-0-|-0---0---2-2-2-2--||
||o-0----0-(0)-0-0---|---------2-2-2-2-o||
||-------------------|---------0-0-0-0--||
|
|   Gtr II (El. Gtr.)
|   Q  E E +E  E E E   E E E E E E E E  3x
||--0----0-(0)-0-0-0-|-2-x-2---0-0-0-0--||
||o-2----2-(2)-2-2-0-|-3-x-3---0-0-0-0-o||
||--2--x-2-(2)-2-2-0-|-2-x-2---1-1-1-1--||
||--2--x-2-(2)-2-2-0-|-0-x-0---2-2-2-2--||
||o-0--x-0-(0)-0-0---|---------2-2-2-2-o||
||-------------------|---------0-0-0-0--||


  A                        E
  Q  E E E E E E   E E E E q  Q    W
|----5-7-8-8-8-8-|-8-7-5---------|------||
|----5-7-8-8-8-8-|-8-7-5-8-5-----|------||
|----6-----------|---------7-----|------||
|----------------|---------6-----|------||
|----------------|---------------|------||
|----------------|---------------|------||
|
| q  Q   H         H       q  Q    W
|-0--------------|---------0-----|------||
|-2--------------|---------0-----|------||
|-2--------------|---------1-----|------||
|-2--------------|---------2-----|------||
|-0--------------|---------2-----|------||
|----------------|---------0-----|------||


   1st & 2nd Verses
    A                  D       E         A              D             E
    Q  E E +E  E E E   E E E E E E E E   Q  E E +E  E E E   +E  E E E E E E E
||--0----0-(0)-0-0-0-|-2---2---0-0-0-0-|-0----0-(0)-0---2-|-(2)---2---0-0-0-0-|
||o-2----2-(2)-2-2-0-|-3---3---0-0-0-0-|-2----2-(2)-2---3-|-(3)---3---0-0-0-0-|
||--2--x-2-(2)-2-2-0-|-2---2---1-1-1-1-|-2--x-2-(2)-2-x-2-|-(2)---2---1-1-1-1-|
||--2--x-2-(2)-2-2-0-|-0---0---2-2-2-2-|-2--x-2-(2)-2-x-0-|-(0)---0---2-2-2-2-|
||o-0--x-0-(0)-0-0---|---------2-2-2-2-|-0--x-0-(0)-0-x---|-----------2-2-2-2-|
||-------------------|---------0-0-0-0-|------------------|-----------0-0-0-0-|
|
|   Q  E E +E  E E E   E E E E E E E E   Q  E E +E  E E E   +E  E E E E E E E
||--0----0-(0)-0-0-0-|-2---2---0-0-0-0-|-0----0-(0)-0-0-2-|-(2)---2---0-0-0-0-|
||o-2----2-(2)-2-2-0-|-3---3---0-0-0-0-|-2----2-(2)-2-2-3-|-(3)---3---0-0-0-0-|
||--2----2-(2)-2-2-0-|-2---2---1-1-1-1-|-2----2-(2)-2-2-2-|-(2)---2---1-1-1-1-|
||--2----2-(2)-2-2-0-|-0---0---2-2-2-2-|-2----2-(2)-2-2-0-|-(0)---0---2-2-2-2-|
||o-0----0-(0)-0-0---|---------2-2-2-2-|-0----0-(0)-0-0---|-----------2-2-2-2-|
||-------------------|---------0-0-0-0-|------------------|-----------0-0-0-0-|


  A              D             E
  Q  E E +E  E E E   +E  E E E E E E E
|-0----0-(0)-0-0-2-|-(2)-2-2-0-0-0-0-0-|
|-2----2-(2)-2-0-3-|-(3)-3-3-0-0-0-0-0-|
|-2--x-2-(2)-2-0-2-|-(2)-2-2-0-1-1-1-1-|
|-2--x-2-(2)-2-0-0-|-(0)-0-0-0-2-2-2-2-|
|-0--x-0-(0)-0-----|-----------2-2-2-2-|
|------------------|-----------0-0-0-0-|
|
| Q  E E +E  E E E   +E  E E E E E E E
|-0----0-(0)-0-0-2-|-(2)-2-2-0-0-0-0-0-|
|-2----2-(2)-2-0-3-|-(3)-3-3-0-0-0-0-0-|
|-2----2-(2)-2-0-2-|-(2)-2-2-0-1-1-1-1-|
|-2----2-(2)-2-0-0-|-(0)-0-0-0-2-2-2-2-|
|-0----0-(0)-0-----|-----------2-2-2-2-|
|------------------|-----------0-0-0-0-|


  A                  D       E
                    6/4
  Q  E E +E  E E E   E E E E E E H.
|-0----0-(0)-0-0-0-|-2---2---0----------||
|-2----2-(2)-2-2-0-|-3---3---0---------o||
|-2--x-2-(2)-2-2-0-|-2---2---1----------||
|-2--x-2-(2)-2-2-0-|-0---0---2----------||
|-0--x-0-(0)-0-0---|---------2---------o||
|------------------|---------0----------||
|
| Q  E E +E  E E E   E E E E E E H.
|-0----0-(0)-0-0-0-|-2---2---0----------||
|-2----2-(2)-2-2-0-|-3---3---0---------o||
|-2----2-(2)-2-2-0-|-2---2---1----------||
|-2----2-(2)-2-2-0-|-0---0---2----------||
|-0----0-(0)-0-0---|---------2---------o||
|------------------|---------0----------||


 Bridge
  $
  D               A                  E                  A
 4/4
  Q  E E E E Q    Q  E E +E  E E E   Q  E E +E  E E E   Q  E E +E  E E E
|-2----2-2-2----|-0----0-(0)-0---0-|-0----0-(0)-0-0-0-|-0----0-(0)-0---0-|
|-3--x-3-3-3-x--|-2----2-(2)-2---0-|-0----0-(0)-0-0-0-|-2----2-(2)-2---0-|
|-2--x-2-2-2-x--|-2--x-2-(2)-2-x-0-|-1----1-(1)-1-1-0-|-2--x-2-(2)-2-x-0-|
|-0--x-0-0-0-x--|-2--x-2-(2)-2-x-0-|-2--x-2-(2)-2-2-0-|-2--x-2-(2)-2-x-0-|
|---------------|-0--x-0-(0)-0-x---|-2--x-2-(2)-2-2---|-0--x-0-(0)-0-x---|
|---------------|------------------|-0--x-0-(0)-0-0---|------------------|
|
| Q  E E E E Q    Q  E E +E  E E E   Q  E E +E  E E E   Q  E E  E  E E E
|-2----2-2-2----|-0----0-(0)-0---0-|-0----0-(0)-0-0-0-|-0----0-----0---0-|
|-3----3-3-3-x--|-2----2-(2)-2---0-|-0----0-(0)-0-0-0-|-2----2-----2---0-|
|-2----2-2-2-x--|-2----2-(2)-2-x-0-|-1----1-(1)-1-1-0-|-2----2-----2-x-0-|
|-0----0-0-0-x--|-2----2-(2)-2-x-0-|-2----2-(2)-2-2-0-|-2----2-----2-x-0-|
|---------------|-0----0-(0)-0-x---|-2----2-(2)-2-2---|-0----0-----0-x---|
|---------------|------------------|-0----0-(0)-0-0---|------------------|


  D                    A             E
  Q  E E +E  E Q    Q  E E E E E E   q  Q  H      W          W
|-2--2-2-(2)-2----|----0-0-0-0-0-0-|-0----------|----------|------||
|-3--3-3-(3)-3-x--|----2-2-2-2-2-2-|-0----------|----------|------||
|-2--2-2-(2)-2-x--|----2-2-2-2-2-2-|-1----------|----------|------||
|-0--0-0-(0)-0-x--|----2-2-2-2-2-2-|-2----------|----------|------||
|-----------------|----0-0-0-0-0-0-|-2----------|----------|------||
|-----------------|----------------|-0----------|----------|------||
|
| Q  E E +E  E Q    Q  E E E E E E   q  Q  H      W          W
|-2--2-2-(2)-2----|----0-0-0-0-0-0-|-0----------|----------|------||
|-3--3-3-(3)-3-x--|----2-2-2-2-2-2-|-0----------|----------|------||
|-2--2-2-(2)-2-x--|----2-2-2-2-2-2-|-1----------|----------|------||
|-0--0-0-(0)-0-x--|----2-2-2-2-2-2-|-2----------|----------|------||
|-----------------|----0-0-0-0-0-0-|-2----------|----------|------||
|-----------------|----------------|-0----------|----------|------||


 3rd & 4th Verses
  A                  D       E         A              D             E
  Q  E E +E  E E E   E E E E E E E E   Q  E E +E  E E E   +E  E E E E E E E
|-0----0-(0)-0-0-0-|-2---2---0-0-0-0-|-0----0-(0)-0---2-|-(2)---2---0-0-0-0--|
|-2----2-(2)-2-2-0-|-3---3---0-0-0-0-|-2----2-(2)-2---3-|-(3)---3---0-0-0-0--|
|-2--x-2-(2)-2-2-0-|-2---2---1-1-1-1-|-2--x-2-(2)-2-x-2-|-(2)---2---1-1-1-1--|
|-2--x-2-(2)-2-2-0-|-0---0---2-2-2-2-|-2--x-2-(2)-2-x-0-|-(0)---0---2-2-2-2--|
|-0--x-0-(0)-0-0---|---------2-2-2-2-|-0--x-0-(0)-0-x---|-----------2-2-2-2--|
|------------------|---------0-0-0-0-|------------------|-----------0-0-0-0--|
|
| Q  E E +E  E E E   E E E E E E E E   Q  E E +E  E E E   +E  E E E E E E E
|-0----0-(0)-0-0-0-|-2---2---0-0-0-0-|-0----0-(0)-0-0-2-|-(2)---2---0-0-0-0--|
|-2----2-(2)-2-2-0-|-3---3---0-0-0-0-|-2----2-(2)-2-2-3-|-(3)---3---0-0-0-0--|
|-2----2-(2)-2-2-0-|-2---2---1-1-1-1-|-2----2-(2)-2-2-2-|-(2)---2---1-1-1-1--|
|-2----2-(2)-2-2-0-|-0---0---2-2-2-2-|-2----2-(2)-2-2-0-|-(0)---0---2-2-2-2--|
|-0----0-(0)-0-0---|---------2-2-2-2-|-0----0-(0)-0-0---|-----------2-2-2-2--|
|------------------|---------0-0-0-0-|------------------|-----------0-0-0-0--|


                                To Coda
  A              D             E          A              D         E
                                                                      |-3--|
  Q  E E +E  E E E   +E  E E E E E E E    Q  E E +E  E E E   Q  Q  Q  E E  E
|-0----0-(0)-0-0-2-|-(2)-2-2-0-0-0-0-0--|-0----0-(0)-0---2-|-2--2--0----------||
|-2----2-(2)-2-0-3-|-(3)-3-3-0-0-0-0-0--|-2----2-(2)-2---3-|-3--3--0------10--||
|-2--x-2-(2)-2-0-2-|-(2)-2-2-0-1-1-1-1--|-2--x-2-(2)-2-x-2-|-2--2--1----------||
|-2--x-2-(2)-2-0-0-|-(0)-0-0-0-2-2-2-2--|-2--x-2-(2)-2-x-0-|-0--0--2----------||
|-0--x-0-(0)-0-----|-----------2-2-2-2--|-0--x-0-(0)-0-x---|-------2----------||
|------------------|-----------0-0-0-0--|------------------|-------0----------||
|
| Q  E E +E  E E E   +E  E E E E E E E    Q  E E +E  E E E   Q  Q  Q  Q
|-0----0-(0)-0-0-2-|-(2)-2-2-0-0-0-0-0--|-0----0-(0)-0---2-|-2--2--0--0-------||
|-2----2-(2)-2-0-3-|-(3)-3-3-0-0-0-0-0--|-2----2-(2)-2---3-|-3--3--0--0-------||
|-2----2-(2)-2-0-2-|-(2)-2-2-0-1-1-1-1--|-2----2-(2)-2-x-2-|-2--2--1--1-------||
|-2----2-(2)-2-0-0-|-(0)-0-0-0-2-2-2-2--|-2----2-(2)-2-x-0-|-0--0--2--2-------||
|-0----0-(0)-0-----|-----------2-2-2-2--|-0----0-(0)-0-x---|-------2--2-------||
|------------------|-----------0-0-0-0--|------------------|-------0--0-------||


 Guitar Solo
  A                          D             E
  Q      E  E  +Q     E  E   E  E E  E      +S   +S  E Q
|-8b8.5--------------------|-8-10---10b12==(10)r(10)-------|
|----------10-(10)---10-10-|-------------------------------|
|--------------------------|-------------------------------|
|--------------------------|-------------------------------|
|--------------------------|-------------------------------|
|--------------------------|-------------------------------|
|
| Q      E  E  +E  E  E  E   E  E E  E       E       E E E
|-0---------0--(0)-0--0--0-|-2----2----------0-------0-0-0-|
|-2---------2--(2)-2--2--0-|-3----3----------0-------0-0-0-|
|-2------x--2--(2)-2--2--0-|-2----2----------1-------1-1-1-|
|-2------x--2--(2)-2--2--0-|-0----0----------2-------2-2-2-|
|-0------x--0--(0)-0--0----|-----------------2-------2-2-2-|
|--------------------------|-----------------0-------0-0-0-|


  A                      D             E
  Q   E  E      +E  E  E E    E  E q    Q   q
|----10-10pb11r(10)-8------|--8----7------------|
|---------------------10-7-|-----7-----10---7---|
|--------------------------|--------------------|
|--------------------------|--------------------|
|--------------------------|--------------------|
|--------------------------|--------------------|
|
| Q   E  E      +E  E  E E   +E  E E E  E E E E
|-0------0------(0)-0----2-|-(2)---2----0-0-0-0-|
|-2------2------(2)-2----3-|-(3)---3----0-0-0-0-|
|-2---x--2------(2)-2--x-2-|-(2)---2----1-1-1-1-|
|-2---x--2------(2)-2--x-0-|-(0)---0----2-2-2-2-|
|-0---x--0------(0)-0--x---|------------2-2-2-2-|
|--------------------------|------------0-0-0-0-|


  A               D                E
  H       E  E  E E   +Q         E E  E E Q
|-----------------8-|-(8)b8.5-----------------|
|------------7-10---|-----------10-7-10-------|
|---------9---------|-------------------------|
|-------------------|-------------------------|
|-------------------|-------------------------|
|-------------------|-------------------------|
|
| Q  E E +E  E  E E   +E      E  E E  E E E E
|-0----0-(0)-0--0-2-|-(2)-----2--2-0--0-0-0-0-|
|-2----2-(2)-2--0-3-|-(3)-----3--3-0--0-0-0-0-|
|-2--x-2-(2)-2--0-2-|-(2)-----2--2-0--1-1-1-1-|
|-2--x-2-(2)-2--0-0-|-(0)-----0--0-0--2-2-2-2-|
|-0--x-0-(0)-0------|-----------------2-2-2-2-|
|-------------------|-----------------0-0-0-0-|


  A
  E E E E  E  E E E   E E E E  Q    E E
|-8-8-7----5--------|--------------------|
|-8-8-7----5--------|--------------------|
|---------------7-5-|-6------------------|
|-------------------|---7---5---------7--|
|-------------------|--------------------|
|-------------------|--------------------|
|
| Q   E E +E  E E E   Q   E E +E  E E E
|-0-----0-(0)-0-0-0-|-0-----0-(0)-0-0-0--|
|-2-----2-(2)-2-2-2-|-2-----2-(2)-2-2-0--|
|-2---x-2-(2)-2-2-2-|-2---x-2-(2)-2-2-0--|
|-2---x-2-(2)-2-2-2-|-2---x-2-(2)-2-2-0--|
|-0---x-0-(0)-0-0-0-|-0---x-0-(0)-0-0----|
|-------------------|--------------------|


  D
  E     E E E  E  E e E        E  E E E  E  E E E
|---------------------------|---------------------|
|---------------------------|---------------------|
|-5b5.5--------5----7-7b7.5-|-----7---5--7--5-----|
|---------7-----------------|-----------------7-5-|
|---------------------------|---------------------|
|---------------------------|---------------------|
|
| Q       E E +Q    E E       +Q    E E +Q    Q
|-2---------2-(2)-----2-----|-(2)-----2-(2)-------|
|-3-------x-3-(3)---x-3-----|-(3)---x-3-(3)---x---|
|-2-------x-2-(2)---x-2-----|-(2)---x-2-(2)---x---|
|-0-------x-0-(0)---x-0-----|-(0)---x-0-(0)---x---|
|---------------------------|---------------------|
|---------------------------|---------------------|


  A
                     |3-| |-3-|     |--3--|
  Q  Q    Q   Q      Q  E E E E E E E E   E
|-----------------|-------------5------------|
|-----------------|---------5-7-----------5h=|
|-----------------|-----5h6------------------|
|-7--7----7---7---|--------------------------|
|-----------------|--------------------------|
|-----------------|--------------------------|
|
| Q  E E +Q   E E   +Q    Q     E E E   E
|-0----0-(0)----0-|-(0)---0-----0-0-0--------|
|-2----2-(2)----2-|-(2)---2-----2-2-2--------|
|-2--x-2-(2)--x-2-|-(2)---2-----2-2-2--------|
|-2--x-2-(2)--x-2-|-(2)---2-----2-2-2--------|
|-0--x-0-(0)--x-0-|-(0)---0-----0-0-0--------|
|-----------------|--------------------------|


  D
  |3| |-3-|  |3-| |-3-|   |3| |-3-|  |3-| |3-|
  Q E Q   E  Q  E Q   E   Q E Q   E  Q  E Q  E
|---5-7------5----7---5-|-8-8-5----------------|
|-7-------7-------------|---------8--5------10-|
|-----------------------|----------------------|
|-----------------------|----------------------|
|-----------------------|----------------------|
|-----------------------|----------------------|
|
| Q   E E   +Q    E E     Q   E E   +Q    Q
|-2-----2---(2)---2-2---|-2-----2---(2)--------|
|-3---x-3---(3)---3-3---|-3---x-3---(3)---x----|
|-2---x-2---(2)---2-2---|-2---x-2---(2)---x----|
|-0---x-0---(0)---0-0---|-0---x-0---(0)---x----|
|-----------------------|----------------------|
|-----------------------|----------------------|


                                       D.S. al Coda
  E
  |3-|
  Q  E      +Q     E   E  E  E    E  E  E E  E   E Q
|-8-10b12==(10)---10--10-10-10-|-10r---10----8--------||
|------------------------------|----------------10----||
|------------------------------|----------------------||
|------------------------------|----------------------||
|------------------------------|----------------------||
|------------------------------|----------------------||
|
| Q          E  E +Q      Q       Q.      E +Q     Q
|-0----------x--0-(0)-----0----|--0-------0-(0)----0--||
|-0----------x--0-(0)-----0----|--0-------0-(0)----0--||
|-1----------x--1-(1)-----1----|--1-------1-(1)----1--||
|-2----------x--2-(2)-----2----|--2-------2-(2)----2--||
|-2----------x--2-(2)-----2----|--2-------2-(2)----2--||
|-0----------x--0-(0)-----0----|--0-------0-(0)----0--||


 Outro
  &
  A                   D       E         A                  D       E
  E E E E +E  E E E   E E E E E E E E   Q  E E +Q    E E   E E E E E E E E
|-0-0---0-(0)-0-0-0-|-2-2-2-0-0-0-0-0-|-0----0-(0)---0-0-|-2-2-2-0-0-0-0-0--|
|-2-2---2-(2)-2-2-0-|-3-3-3-0-0-0-0-0-|-2----2-(2)---2-0-|-3-3-3-0-0-0-0-0--|
|-2-2-x-2-(2)-2-2-0-|-2-2-2-0-1-1-1-0-|-2--x-2-(2)---2-0-|-2-2-2-0-1-1-1-0--|
|-2-2-x-2-(2)-2-2-0-|-0-0-0-0-2-2-2-0-|-2--x-2-(2)---2-0-|-0-0-0-0-2-2-2-0--|
|-0-0-x-0-(0)-0-0---|---------2-2-2---|-0--x-0-(0)---0---|---------2-2-2----|
|-------------------|---------0-0-0---|------------------|---------0-0-0----|
|
| E E E E +E  E E E   E E E E E E E E   Q  E E +E  E E E   E E E E E E E E
|-0-0---0-(0)-0-0-0-|-2-2-2-0-0-0-0-0-|-0----0-(0)-0-0-0-|-2-2-2-0-0-0-0-0--|
|-2-2---2-(2)-2-2-0-|-3-3-3-0-0-0-0-0-|-2----2-(2)-2-2-0-|-3-3-3-0-0-0-0-0--|
|-2-2-x-2-(2)-2-2-0-|-2-2-2-0-1-1-1-0-|-2--x-2-(2)-2-2-0-|-2-2-2-0-1-1-1-0--|
|-2-2-x-2-(2)-2-2-0-|-0-0-0-0-2-2-2-0-|-2--x-2-(2)-2-2-0-|-0-0-0-0-2-2-2-0--|
|-0-0-x-0-(0)-0-0---|---------2-2-2---|-0--x-0-(0)-0-0---|---------2-2-2----|
|-------------------|---------0-0-0---|------------------|---------0-0-0----|


  A              D          E         A              D          E
  Q  E E +E  Q   E   Q  E E E E E E   Q  E E +E  Q   E   Q  E E Q   E E
|-0----0-(0)-0---2-|-2--2-0-0-0-0-0-|-0----0-(0)-0---2-|-2--2-0-0---0-0--|
|-2----2-(2)-2---3-|-3--3-0-0-0-0-0-|-2----2-(2)-2---3-|-3--3-0-0---0-0--|
|-2--x-2-(2)-2---2-|-2--2-0-1-1-1-0-|-2--x-2-(2)-2---2-|-2--2-0-1---1-0--|
|-2--x-2-(2)-2---0-|-0--0-0-2-2-2-0-|-2--x-2-(2)-2---0-|-0--0-0-2---2-0--|
|-0--x-0-(0)-0-----|--------2-2-2---|-0--x-0-(0)-0-----|--------2---2----|
|------------------|--------0-0-0---|------------------|--------0---0----|
|
| Q  E E +E  E E E   Q  E E E E E E   Q  E E +E  E E E   Q  E E E E E E
|-0----0-(0)-0-0-0-|-2--2-0-0-0-0-0-|-0----0-(0)-0-0-0-|-2--2-0-0-0-0-0--|
|-2----2-(2)-2-2-0-|-3--3-0-0-0-0-0-|-2----2-(2)-2-2-0-|-3--3-0-0-0-0-0--|
|-2--x-2-(2)-2-2-0-|-2--2-0-1-1-1-0-|-2--x-2-(2)-2-2-0-|-2--2-0-1-1-1-0--|
|-2--x-2-(2)-2-2-0-|-0--0-0-2-2-2-0-|-2--x-2-(2)-2-2-0-|-0--0-0-2-2-2-0--|
|-0--x-0-(0)-0-0---|--------2-2-2---|-0--x-0-(0)-0-0---|--------2-2-2----|
|------------------|--------0-0-0---|------------------|--------0-0-0----|


  A                  D       E         A       D         A
  Q  E E +Q    Q     E E E E E E E E   E E E E E E E E   E E E E H
|-0----0-(0)---0---|-2-2-2-0-0-0-0-0-|-0-0-0---2-2-2---|-0-0-0-0------*|
|-2----2-(2)---2---|-3-3-3-0-0-0-0-0-|-2-2-2---3-3-3---|-2-2-2-2------*|
|-2--x-2-(2)---2---|-2-2-2-0-1-1-1-0-|-2-2-2---2-2-2---|-2-2-2-2------*|
|-2--x-2-(2)---2---|-0-0-0-0-2-2-2-0-|-2-2-2---0-0-0---|-2-2-2-2------*|
|-0--x-0-(0)---0---|---------2-2-2---|-0-0-0-----------|-0-0-0-0------*|
|------------------|---------0-0-0---|-----------------|--------------*|
|
| Q  E E +E  E E E   E E E E E E E E   E E E E E E E E   E E E E H
|-0----0-(0)-0-0-0-|-2-2-2-0-0-0-0-0-|-0-0-0---2-2-2---|-0-0-0-0------*|
|-2----2-(2)-2-2-0-|-3-3-3-0-0-0-0-0-|-2-2-2---3-3-3---|-2-2-2-2------*|
|-2--x-2-(2)-2-2-0-|-2-2-2-0-1-1-1-0-|-2-2-2---2-2-2---|-2-2-2-2------*|
|-2--x-2-(2)-2-2-0-|-0-0-0-0-2-2-2-0-|-2-2-2---0-0-0---|-2-2-2-2------*|
|-0--x-0-(0)-0-0---|---------2-2-2---|-0-0-0-----------|-0-0-0-0------*|
|------------------|---------0-0-0---|-----------------|--------------*|


Duration Legend
---------------
W - whole; H - half; Q - quarter; E - 8th; S - 16th; T - 32nd; X - 64th; a - acciaccatura
+ - note tied to previous; . - note dotted; .. - note double dotted
Uncapitalized letters represent notes that are staccato (1/2 duration)
Irregular groupings are notated above the duration line
Duration letters will always appear directly above the note/fret number it represents the
duration for.  Duration letters with no fret number below them represent rests.  Multi-
bar rests are notated in the form Wxn, where n is the number of bars to rest for.  Low
melody durations appear below the staff

Tablature Legend
----------------
 h   - hammer-on
 p   - pull-off
 b   - bend
 pb  - pre-bend
 r   - bend release (if no number after the r, then release immediately)
 /\  - slide into or out of (from/to "nowhere")
 s   - legato slide
 S   - shift slide
  - natural harmonic
[n]  - artificial harmonic
n(n) - tapped harmonic
 ~   - vibrato
 tr  - trill
 T   - tap
 TP  - trem. picking
 PM  - palm muting
\n/  - tremolo bar dip; n = amount to dip
 \n  - tremolo bar down
 n/  - tremolo bar up
/n\  - tremolo bar inverted dip
 =   - hold bend; also acts as connecting device for hammers/pulls
 <>  - volume swell (louder/softer)
 x   - on rhythm slash represents muted slash
 o   - on rhythm slash represents single note slash

Misc Legend
-----------
 |  - bar
||  - double bar
||o - repeat start
o|| - repeat end
*|  - double bar (ending)
 :  - bar (freetime)
 $  - Segno
 &  - Coda
Tempo markers -  = BPM(8/16=s8/s16), where s8 = swing 8ths, s16 = swing 16ths
Добавлено: 04.12.2015
Другие материалы по этой песне:

Страница создана 16.04.2012
http://primanota.ru/los-lobos/come-on-lets-go-chords.htm
Привет, Гость.
Предлагаем пройти революционный курс по гитаре.
Подарок от PrimaNota.Ru, забирай!