PrimaNota.ru - самый крупный в мире бесплатный архив песенных текстов, аккордов, табулатур и нот


Lordi - Monster Keep Me Company - таба, видео

Регистрация Запомнить меня
Войти через:  Facebook Google Twitter Vk Yandex Mail.ru

Lordi - Monster Keep Me Company - таба, видео

Печатать
Просмотров: 157
Monster Keep Me Company
Lordi

Its easy, but the solo is tricky >:)
My name is Max and im 14.
Email: maxlattka (at) gmx.de
ICQ: 282-065-326
UPDATE 2 (2.7.2009)

* = PM  ( (*) is possible)
^ = Bend
h = hammer on
p = pull off
~ = vibrato

Intro
-you can play the verse part instead

Verse

e|-----------------------------------|
B|-----------------------------------|
G|-----------------------------------|
D|-7--7--7--7---6--6--6--6-----------|  2x
A|-7--7--7--7---6--6--6--6-----------|
E|-5--5--5--5---4--4--4--4-----------|
  (*) *  *  *  (*) *  *  * 
e|-----------------------------------|
B|-----------------------------------|
G|-----------------------------------|
D|-3--3--3--3---5--5--5--5-----------|
A|-3--3--3--3---5--5--5--5-----------|
E|-1--1--1--1---3--3--3--3-----------|
  (*) *  *  *  (*) *  *  *
e|-----------------------------------|
B|-----------------------------------|
G|-----------------------------------|
D|-3-3---5-5------7------------------|
A|-3-3---5-5------7------------------|
E|-1-1---3-3------5------------------|
   * *   * *     (*)
&repeat


Pre Chorus

e|-------------------------------------------|
B|-------------------------------------------|
G|-------------------------------------------|
D|--7--7--7----5--7----7--10---7--10---12--10|
A|--7--7--7----5--7----7--10---7--10---12--10|
E|--5--5--5----3--5----5--8----5--8----10--8-|
    *  *  *    *  *    *  *    *  *    *   *

e|-----------------------------------|
B|-----------------------------------|
G|-----------------------------------|
D|-7--10--9-----10--9----------------|
A|-7--10--9-----10--9----------------|
E|-5--8---7-----8---7----------------|


Chorus

e|------------------------------------------|
B|------------------------------------------|
G|------------------------------------------|
D|-7--7--7-----7--5--3-----3--3--3-----5--7-|    2x
A|-7--7--7-----7--5--3-----3--3--3-----5--7-|
E|-5--5--5-----5--3--1-----1--1--1-----3--5-|
      *  *                    *  *
e|-----------------------------------|
B|-----------------------------------|
G|-----------------------------------|
D|--8---10--7------------------------|
A|--8---10--7------------------------|
E|--6---8---5------------------------|


Bridge (before solo)

e|-----------------------------------------------|
B|-3----------------34----------2h3p2--------1---|
G|----000-----0-2-3----33-----------------------3|
D|-----------------------------------------------| 2x
A|-----------------------------------------------|
E|-----------------------------------------------|


Solo
Fast
e|------------------------------------------|
B|--6p5p3---8p6p5---10p8p6----5-6-5h6p5-----|
G|------------------------------------------|
D|------------------------------------------|
A|------------------------------------------|
E|------------------------------------------|

e|------------------------------------------|
B|--6h8h10-----8h10h12--13------------------|
G|------------------------------------------|
D|------------------------------------------|
A|------------------------------------------|
E|------------------------------------------|
&repeat

e|------------------------------------------|
B|--15~---13-15---17-17-17^-----------------|
G|------------------------------------------|
D|------------------------------------------|
A|------------------------------------------|
E|------------------------------------------|
There could be mistakes ;)


Outro
Guitar Part
e|------------------------------------------|
B|------------------------------------------|
G|------------------------------------------|
D|--7-7---7-7-----8-8---8-8-----------------|
A|--7-7---7-7-----8-8---8-8-----------------|
E|--5-5---5-5-----6-6---6-6----0-0-0---0-0-0|
                               * * *   * * *  
Percussions
e|---5--------------------------------------|
B|------5----6--3----------5--2----3--------|
G|------------------------------------3-----|
D|------------------------------------------|
A|------------------------------------------|
E|------------------------------------------|
I tabbed the Percussions because they're also cool

So first that's the end! ;)
Hope you like it :)
Добавлено: 20.05.2012
Другие материалы по этой песне:
  • Аккорды и текст

Страница создана 20.05.2012
http://primanota.ru/lordi/monster-keep-me-company-chords.htm
Привет, Гость.
Предлагаем пройти революционный курс по гитаре.
Подарок от PrimaNota.Ru, забирай!