PrimaNota.ru - самый крупный в мире бесплатный архив песенных текстов, аккордов, табулатур и нот


Lordi - Rock Police - текст песни, таба, видео

Регистрация Запомнить меня
Войти через:  Facebook Google Twitter Vk Yandex Mail.ru

Lordi - Rock Police - текст песни, таба, видео

Печатать
Просмотров: 191
Авторы: Ox, Awa, Petri Kangas, Tracy Lipp, Mr. Lordi, Amen, Kita

Song: Rock Police
Band: Lordi
Tabbed by: unspeakable.elvis@gmail.com

If you take the time to rate, thanks! Kindly also comment!

.       palm mute
h       hammer on
p       pull off
/       slide up to note
\       slide down from note
7b9     bend 7th fret major second up
9r7     release previous bend
x       dead note
(n)     ghost note
~       vibrato
[9]     artificial (pinch) harmonic on 9th fret
{7}     natural harmonic on the 7th fret
7b9r7p5 bend 7th fret up, then release bend and pull off to 5th fret.
7b9-b9  bend 7th fret up major second, then strike string again while bent


Standard tuning.


Intro 1
~~~~~~~

"...court of rock."
|-------------------------|
|-------------------------|
|-------------------------|
|----------------5--5--7--|
|----------------5--5--7--|
|----------------------5--|


|-------------------------|-------------------------|
|-------------------------|-------------------------|
|-------------------------|-------------------------|
|(7)----------------------|(7)----------------------|
|(7)----------------------|(7)----------------------|
|(5)----------------------|(5)----------------------|
  ^Don't play this, it's to show you're holding the chord
   from the previous measure.

|-------------------------|-------------------------|
|-------------------------|-------------------------|
|-------------------------|-------------------------|
|(7)----------------------|(7)-------------5--5--3--|
|(7)----------------------|(7)-------------5--5--3--|
|(5)----------------------|(5)-------------------1--|


|-------------------------|-------------------------|
|-------------------------|-------------------------|
|-------------------------|----------------------7--|
|(3)----------------------|(3)-------------------7--|
|(3)----------------------|(3)-------------2--2--5--|
|(1)----------------------|(1)-------------0--0-----|


|-------------------------|-------------------------|
|-------------------------|-------------------------|
|(7)----------------------|(7)----------------------|
|(7)----------------------|(7)-------------5--5--7--|
|(5)----------------------|(5)-------------5--5--7--|
|-------------------------|-------------------------|



Intro 2
~~~~~~~

|-------------------------|-------------------------|
|-------------------------|-------------------------|
|-------------------------|-------------------------|
|(7)-7--7-----7--7-----7--|----7-----7-----7-----7--|
|(7)-7--7-----7--7-----7--|----7-----7-----7-----7--|
|----------5--------5-----|-5-----5-----5-----5-----|
           .        .       .     .     .     .

|-------------------------|-------------------------|
|-------------------------|-------------------------|
|-------------------------|-------------------------|
|(7)-7--7-----7--7-----7--|----7-----7-----5-----3--|
|(7)-7--7-----7--7-----7--|----7-----7-----5-----3--|
|----------5--------5-----|-5-----5-----5-----------|
           .        .       .     .     .    

|-------------------------|-------------------------|
|-------------------------|-------------------------|
|-------------------------|-------------------------|
|(3)-3--3-----3--3-----3--|----3-----3-----2-----7--|
|(3)-3--3-----3--3-----3--|----3-----3-----2-----5--|
|----------1--------1-----|-1-----1-----1-----------|
           .        .       .     .     .    

|-------------------------|-------------------------|
|-------------------------|-------------------------|
|-------------------------|-------------------------|
|(7)-7--7-----7--7-----7--|----7-----7-----5-----3--|
|(5)-5--5--5--5--5--5--5--|-5--5--5--5--5--5-----3--|
|-------------------------|-------------------------|
           .        .       .     .     .    

|-------------------------|-------------------------|
|-------------------------|-------------------------|
|-------------------------|-------------------------|
|(3)-------------------3--|-------------3---/-5-----|
|(3)-------------------3--|-------------3---/-5-----|
|-------------------------|-------------------------|



Verse
~~~~~

 "horrors have a smell..."
|-------------------------|-------------------------|
|-------------------------|-------------------------|
|-------------------------|-------------------------| Rhythm
|-7--------fade out-------|-------------------------| Guitar
|-7-----------------------|-------------------------|
|-5-----------------------|-------------------------|
|                         |                         |
|                         |                         |
|-0-----------------------|-------------------------|
|-1-----------------------|-------------------------|
|-2-----------------------|-------------------------| Acoustic
|-2-----------------------|-------------------------| Guitar
|-0-----------------------|-------------------------|
|-------------------------|-------------------------|


 "crime..."
|-1-----------------------|-------------------------|
|-1-----------------------|-------------------------|
|-2-----------------------|-------------------------| Acoustic
|-3-----------------------|-------------------------| Guitar
|-3-----------------------|-------------------------|
|-------------------------|-------------------------|


 "casings on the floor..."
|-3-----------------------|-------------------------|
|-3-----------------------|-------------------------|
|-0-----------------------|-------------------------| Acoustic
|-0-----------------------|-------------------------| Guitar
|-2-----------------------|-------------------------|
|-------------------------|-------------------------|


 "time..."
|-------------------------|-------------------------|
|-------------------------|-------------------------|
|-------------------------|-------------------------| Rhythm
|-------------------------|-------------3-----5-----| (distortion)
|-------------------------|-------------3-----5-----|
|-------------------------|-------------------------|
|                         |                         |
|                         |                         |
|-0-----------------------|-------------------------|
|-1-----------------------|-------------------------|
|-2-----------------------|-------------------------| Acoustic
|-2-----------------------|-------------------------| Guitar
|-0-----------------------|-------------------------|
|-------------------------|-------------------------|


 "we can hear the evidence..."
|-------------------------|-------------------------|
|-------------------------|-------------------------|
|-------------------------|-------------------------| Rhythm
|-7----------fade out-----|-------------------------| (distortion)
|-7-----------------------|-------------------------|
|-5-----------------------|-------------------------|
|
|
|-0-----------------------|-------------------------|
|-1-----------------------|-------------------------|
|-2-----------------------|-------------------------| Acoustic
|-2-----------------------|-------------------------| Guitar
|-0-----------------------|-------------------------|
|-------------------------|-------------------------|


 "air..."
|-1-----------------------|-------------------------|
|-1-----------------------|-------------------------|
|-2-----------------------|-------------------------| Acoustic
|-3-----------------------|-------------------------| Guitar
|-3-----------------------|-------------------------|
|-------------------------|-------------------------|


 "using chokeholds..."
|-3-----------------------|-------------------------|
|-3-----------------------|-------------------------|
|-0-----------------------|-------------------------| Acoustic
|-0-----------------------|-------------------------| Guitar
|-2-----------------------|-------------------------|
|-------------------------|-------------------------|


 "morons get what they deserve..."
|-1-----------------------|-------------------------|
|-1-----------------------|-------------------------|
|-2-----------------------|-------------------------| Acoustic
|-3-----------------------|-------------------------| Guitar
|-3-----------------------|-------------------------|
|-------------------------|-------------------------|


 "slash and burn   protect and serve..."
|-------------------------|-------------------------|
|-------------------------|-------------------------|
|-------------------------|-------------------------| Rhythm
|-2-----3-----2-----3-----|-2-----3-----2-----------| (distortion)
|-2-----3-----2-----3-----|-2-----3-----2-----------|
|-------------------------|-------------------------|



Bridge
~~~~~~

      "justice in leather..."
|-------------------------|-------------------------|
|-------------------------|-------------------------|
|-4-----4--------4--------|-------------------------|
|-4-----4--------4--------|-4--------4-----4-----4--|
|----------2--2-----2--2--|-4--------4-----4-----4--|
|-------------------------|----2--2-----2-----2-----|
           .  .     .  .       .  .     .     .


|-------------------------|-------------------------|
|-------------------------|-3-----3--3--------------|
|-------------------------|-2-----2--2--------------|
|-5-----5--------5--------|-0-----0--0--2--2--2-----|
|-5-----5--------5--------|-------------0--0--0-----|
|----------3--3-----3--3--|-------------------------|
           .  .     .  .

     "crashing through windows..."
|-------------------------|-------------------------|
|-------------------------|-------------------------|
|-4-----4--------4--------|-------------------------|
|-4-----4--------4--------|-4-----4--4-----4-----4--|
|----------2--2-----2--2--|-4-----4--4-----4-----4--|
|-------------------------|----2--------2-----2-----|
           .  .     .  .       .        .     .

   
|-------------------------|-------------------------|
|-------------------------|-3-----3--3--------------|
|-------------------------|-2-----2--2--------------|
|-5-----5--------5-----5--|-0-----0--0--2-----2-----|
|-5-----5--------5-----5--|-------------0-----0-----|
|----------3--3-----3-----|-------------------------|
           .  .     .

                             "we are the rock police..."
|-------------------------|-------------------------|
|-------------------------|-------------------------|
|-------------------------|-------------------------|
|-5--------------4--x--2--|(2)----------------------|
|-5--------------4--x--2--|(2)----------------------|
|-3--------------2--x--0--|(0)----------------------|



Chorus
~~~~~~

                           "we are the rock police..."
|-------------------------|-------------------------|
|-------------------------|-------------------------|
|----4--4-----4--4-----4--|----4-----4-----4--------|
|----4--4-----4--4-----4--|----4-----4-----4-----5--|
|-2--2--2--2--2--2--2--2--|-2--2--2--2--2--2--0--5--|
|-------------------------|----------------------3--|
  .        .        .       .     .     .     .

                           "we are the rock police..."
|-------------------------|-------------------------|
|-------------------------|-------------------------|
|----------------------2--|----2-----2-----2-----4--|
|(5)-5--5-----5--5-----2--|----2-----2-----2-----4--|
|(5)-5--5-----5--5-----0--|-0--0--0--0--0--0--0--2--|
|(3)-3--3--3--3--3--3-----|-------------------------|
           .        .       .     .     . 

                           "we are the rock police..."
|-------------------------|-------------------------|
|-------------------------|-------------------------|
|(4)-4--4-----4--4-----4--|----4-----4-----4--------|
|(4)-4--4-----4--4-----4--|----4-----4-----4-----5--|
|(2)-2--2--2--2--2--2--2--|-2--2--2--2--2--2--0--5--|
|-------------------------|----------------------3--|
           .        .       .     .     .     .


First Chorus Ending:
                           "we are the rock..."
|-------------------------|-------------------------|
|-------------------------|-------------------------|
|----------------------2--|----2-----2-----2--------|
|(5)-5--5-----5--5-----2--|----2-----2-----2-----5--|
|(5)-5--5-----5--5-----0--|-0--0--0--0--0--0--0--5--|
|(3)-3--3--3--3--3--3-----|----------------------3--|
           .        .       .     .     .     . 



|-------------------------|-------------------------|
|-------------------------|-------------------------|
|-------------------------|-------------------------|
|(5)-------------------5--|-------------5---/-7-----|
|(5)-------------------5--|-------------5---/-7-----|
|(3)-------------------3--|-------------3---/-5-----|

Back to Verse, then Bridge, then Chorus with Second Ending:
        ~~~~~       ~~~~~~       ~~~~~~      


Second Chorus Ending

|-------------------------|-------------------------|
|-------------------------|-------------------------|
|----------------------2--|----2-----2-----2-----2--|
|(5)-5--5-----5--5-----2--|----2-----2-----2-----2--|
|(5)-5--5-----5--5-----0--|-0--0--0--0--0--0--0--0--|
|(3)-3--3--3--3--3--3-----|-------------------------|
           .        .       .     .     .     . 


Guitar Solo
~~~~~~~~~~~

|-------13-------13----13----13----13----------------------13~\-|
|/10-------10-------10----10----10----10\8~----8----8--/15------|
|------------------------------------------------10-------------|
|---------------------------------------------------------------|
|---------------------------------------------------------------|
|---------------------------------------------------------------|


|----13-15b17---b17-b17-b17-b17r15-13-15---15b17r15-13----------|
|/15---------------------------------------------------15~------|
|---------------------------------------------------------------|
|---------------------------------------------------------------|
|---------------------------------------------------------------|
|---------------------------------------------------------------|


|---------------------------------------------------|
|-18p17p15h17-18p17p15h17-18p17p15----15~~----------|
|----------------------------------17---------------|
|---------------------------------------------------|
|---------------------------------------------------|
|---------------------------------------------------|


|-----------------------------------------|
|-11------13------15----------------------|
|-13b15---15b17---17b19-------------------|
|-----------------------------------------|
|-----------------------------------------|
|-----------------------------------------|



Keyboard Solo tabbed for guitar
~~~~~~~~~~~~~~~~~~~~~~~~~~~~~~~

|--------------------------------------|
|-10--------------------------------10-|
|------7-10-----7--------7-9-10-9-7----|
|-------------7--------7---------------|
|--------------------------------------|
|--------------------------------------|


|-----------------------------------------|
|-11-----10-------------------------------|
|------7---------10------------10----9-10-|
|--------------8-------8-10-12----12------|
|-----------------------------------------|
|-----------------------------------------|


|----------------------------------------|
|------------------------------8---------|
|-12------9------------------9---9-------|
|------10---------10------10-------10----|
|--------------10------10-------------10-|
|----------------------------------------|


|---------------------------------------------|
|-11------11------11----13------13------11----|
|----10------10------10----10------10------10-|
|-------8-------8-------------8-------8-------|
|---------------------------------------------|
|---------------------------------------------|



Lead Guitar + Keyboard together:
~~~~~~~~~~~~~~~~~~~~~~~~~~~~~~~~

|-5h6p5p0-5h6p5---5h6p5p0-5h6p5---5h6h8p6-5h6h8p6-5-------------|
|---------------6---------------6-------------------------------|
|---------------------------------------------------------------|
|---------------------------------------------------------------|
|---------------------------------------------------------------|
|---------------------------------------------------------------|



Solo Rhythm
~~~~~~~~~~~

|-------------------------|-------------------------|
|-------------------------|-------------------------|
|-7-----7--------7--------|-7--------7-----7-----7--|
|-7-----7--------7--------|-7--------7-----7-----7--|
|----------5--5-----5--5--|----5--5-----5-----5-----|
|-------------------------|-------------------------|
           .  .     .  .       .  .     .     .


|-------------------------|-------------------------|
|-------------------------|-------------------------|
|-3-----3--------3--------|-3--------3-----3-----3--|
|-3-----3--------3--------|-3--------3-----3-----3--|
|----------1--1-----1--1--|----1--1-----1-----1-----|
|-------------------------|-------------------------|
           .  .     .  .       .  .     .     .


|-------------------------|-------------------------|
|-------------------------|-------------------------|
|-5-----5--------5--------|-5--------5-----5-----5--|
|-5-----5--------5--------|-5--------5-----5-----5--|
|----------3--3-----3--3--|----3--3-----3-----3-----|
|-------------------------|-------------------------|
           .  .     .  .       .  .     .     .


|-------------------------|-------------------------|
|-------------------------|-------------------------|
|-7-----7--------7--------|-7--------7--3-----5-----|
|-7-----7--------7--------|-7--------7--3-----5-----|
|----------5--5-----5--5--|----5--5-----------------|
|-------------------------|-------------------------|
           .  .     .  .       .  .     

Keyboard solo begins
|-------------------------|-------------------------|
|-------------------------|-------------------------|
|-7-----7--------7--------|-7--------7-----7-----7--|
|-7-----7--------7--------|-7--------7-----7-----7--|
|----------5--5-----5--5--|----5--5-----5-----5-----|
|-------------------------|-------------------------|
           .  .     .  .       .  .     .     .


|-------------------------|-------------------------|
|-------------------------|-------------------------|
|-3-----3--------3--------|-3--------3-----3-----3--|
|-3-----3--------3--------|-3--------3-----3-----3--|
|----------1--1-----1--1--|----1--1-----1-----1-----|
|-------------------------|-------------------------|
           .  .     .  .       .  .     .     .


|-------------------------|-------------------------|
|-------------------------|-------------------------|
|-5-----5--------5--------|-5--------5-----5-----5--|
|-5-----5--------5--------|-5--------5-----5-----5--|
|----------3--3-----3--3--|----3--3-----3-----3-----|
|-------------------------|-------------------------|
           .  .     .  .       .  .     .     .


|-------------------------|-------------------------|
|-------------------------|-------------------------|
|-3--------3--------3-----|-3--------3--------3-----|
|-3--------3--------3-----|-3--------3--------3-----|
|----1--1-----1--1-----1--|----1--1-----1--1-----1--|
|-------------------------|-------------------------|
     .  .     .  .     .       .  .     .  .     .


|-------------------------|-------------------------|
|-------------------------|-------------------------|
|-2-----3-----2-----3-----|-2-----3-----2-----------|
|-2-----3-----2-----3-----|-2-----3-----2-----------|
|-------------------------|-------------------------|
|-------------------------|-------------------------|

Back to Bridge, after which:


Final Chorus
~~~~~~~~~~~~
                            "we are the rock police..."
|-------------------------|-------------------------|
|-------------------------|-------------------------|
|----4--4-----4--4-----4--|----4-----4-----4--------|
|----4--4-----4--4-----4--|----4-----4-----4-----5--|
|-2--2--2--2--2--2--2--2--|-2--2--2--2--2--2--0--5--|
|-------------------------|----------------------3--|
  .        .        .       .     .     .     .

                            "we are the rock police..."
|-------------------------|-------------------------|
|-------------------------|-------------------------|
|----------------------2--|----2-----2-----2-----4--|
|(5)-5--5-----5--5-----2--|----2-----2-----2-----4--|
|(5)-5--5-----5--5-----0--|-0--0--0--0--0--0--0--2--|
|(3)-3--3--3--3--3--3-----|-------------------------|
           .        .       .     .     .     .

                            "we are the rock police..."
|-------------------------|-------------------------|
|-------------------------|-------------------------|
|----4--4-----4--4-----4--|----4-----4-----4--------|
|----4--4-----4--4-----4--|----4-----4-----4-----5--|
|(2)-2--2--2--2--2--2--2--|-2--2--2--2--2--2--0--5--|
|-------------------------|----------------------3--|
           .        .       .     .     .     .

                            "we are the rock police..."
|-------------------------|-------------------------|
|-------------------------|-------------------------|
|----------------------2--|----2-----2-----2-----4--|
|(5)-5--5-----5--5-----2--|----2-----2-----2-----4--|
|(5)-5--5-----5--5-----0--|-0--0--0--0--0--0--0--2--|
|(3)-3--3--3--3--3--3-----|-------------------------|
           .        .       .     .     .     . 

                            "we are the rock police..."
|-------------------------|-------------------------|
|-------------------------|-------------------------|
|----4--4-----4--4-----4--|----4-----4-----4--------|
|----4--4-----4--4-----4--|----4-----4-----4-----5--|
|(2)-2--2--2--2--2--2--2--|-2--2--2--2--2--2--0--5--|
|-------------------------|----------------------3--|
           .        .       .     .     .     .

                            "we are the rock police..."
|-------------------------|-------------------------|
|-------------------------|----------------3--------|
|----------------------2--|----2-----2-----2-----4--|
|(5)-5--5-----5--5-----2--|----2-----2-----0-----4--|
|(5)-5--5-----5--5-----0--|-0--0--0--0--0--------2--|
|(3)-3--3--3--3--3--3-----|-------------------------|
           .        .       .     .     .      

                            "we are the rock police..."
|-------------------------|-------------------------|
|-------------------------|-------------------------|
|----4--4-----4--4-----4--|----4-----4-----2--------|
|(4)-4--4-----4--4-----4--|----4-----4-----2-----5--|
|(2)-2--2--2--2--2--2--2--|-2--2--2--2--2--0--0--5--|
|-------------------------|----------------------3--|
           .        .       .     .     .     .

                            "we are the rock!"
|-------------------------|-------------------------|
|-------------------------|----------------3--------|
|----------------------2--|----2-----2--2--2--2--4--|
|(5)-5--5-----5--5-----2--|----2-----2--2-----2--4--|
|(5)-5--5-----5--5-----0--|-0--0--0-----------------|
|(3)-3--3--3--3--3--3-----|-------------------------|
           .        .       .     .

End!
Добавлено: 31.05.2012
Другие материалы по этой песне:
  • Аккорды и текст

Страница создана 31.05.2012
http://primanota.ru/lordi/rock-police-chords.htm
Привет, Гость.
Предлагаем пройти революционный курс по гитаре.
Подарок от PrimaNota.Ru, забирай!