PrimaNota.ru - самый крупный в мире бесплатный архив песенных текстов, аккордов, табулатур и нот


Lordi - Pyromite - текст песни, таба, видео

Регистрация Запомнить меня
Войти через:  Facebook Google Twitter Vk Yandex Mail.ru

Lordi - Pyromite - текст песни, таба, видео

Печатать
Просмотров: 157
Song: Pyromite
Band: Lordi
Tabbed by: unspeakable.elvis@gmail.com

Legend:
.       palm mute
h       hammer on
p       pull off
/       slide up to note
\       slide down from note
16\12   slide from 16th fret to 12th fret
7b9     bend 7th fret major second up
9r7     release previous bend
x       dead note
~       vibrato
7b9r7p5 bend 7th fret up, then release bend and pull off to 5th fret.



Standard tuning

Bass intro (with distortion):
~~~~~~~~~~~~~~~~~~~~~~~~~~~~

|-------|
|-------|
|-3-/8\-|
|-------|


|-------------5-------------------|
|-----------------7-----------5-7-|
|-0---3-0-3-----------0---5-7-----| x3
|---------------------------------|


|-------------5-------------------|
|-----------------5h7-7-7-7-5-----|
|-0---3-0-3-------------------7-5-|
|---------------------------------|


Intro / "Pyromite" riff
~~~~~~~~~~~~~~~~~~~~~~~

|---------------------------------|---------------------------------|
|-------------3-------3---1-------|-------------3-------3---1-------|
|-2-----------2-------2---2-------|-2-----------2-------2---2-------|
|-2---2-2-2---x-------x---x---2-2-|-2---2-2-2---x-------x---x---2-2-|
|-0---0-0-0---0-------0---0---0-0-|-0---0-0-0---0-------0---0---0-0-|
|---------------------------------|---------------------------------|
      . . .                   . .       . . .                   . .

|---------------------------------|---------------------------------|
|---------------------------------|---------------------------------|
|---------------------------------|---------------------------------|
|---------------------------------|---------------------------------|
|-------------------------3-------|-----2---------------------------|
|-1-----------0-------------------|-----------------4-----------0---|


Verse
~~~~~
  "she smiles..."
|-----------------|-----------------|-----------------|-----------------|
|-1---------------|-----------------|-----------------|---3---1---0-0-1-|
|-2---------------|-----------------|-----------------|---4---2---0-0-2-|
|-x---------------|-----------------|-----------------|-----------------|
|-0---------------|-----------------|-----------------|-----------------|
|-----------------|-----------------|-----------------|-----------------|


|-----------------|-----------------|-----------------|-----------------|
|-1---------------|-----------------|-----------------|---3---1---0-0-1-|
|-2---------------|-----------------|-----------------|---4---2---0-0-2-|
|-3---------------|-----------------|-----------------|-----------------|
|-----------------|-----------------|-----------------|-----------------|
|-----------------|-----------------|-----------------|-----------------|


|-----------------|-----------------|-----------------|-----------------|
|-1---------------|-----------------|-----------------|---0---1---0-0-1-|
|-2---------------|-----------------|-----------------|---0---0---0-0-0-|
|-x---------------|-----------------|-----------------|-----------------|
|-0---------------|-----------------|-----------------|-----------------|
|-----------------|-----------------|-----------------|-----------------|

                                    "and she keeps on pushing it..."
|-----------------|-----------------|-----------------|-----------------|
|-1---------------|-----------------|-----------------|-----------------|
|-2---------------|-----------------|-----------------|-----------------|
|-3---------------|-----------------|-----------------|-----------------|
|-----------------|-----------------|-2---2-----2---2-|-----------5-5-3-|
|-----------------|-----------------|-0-0-0-0-0-0-0-0-|-1-1-1-1-3-3-3-1-|
                                        .   . .   . .   . . . . .     

Pre-chorus
~~~~~~~~~~
  "but if you ever get too close..."
|----------------------------------|----------------------------------|
|----------------------------------|----------------------------------|
|----------------------------------|----------------------------------|
|-3/5----------5-------------------|--------------5-------------------|
|-3/5------------------5-------5---|-3/5------------------5-----------|
|-1/3--3---3-------3-------3---3---|-1/3--3---3-------3-------3---3---|
       .   .       .       .              .   .       .       .

                                                   "she will..."
|---------------------------------|---------------------------------|
|---------------------------------|---------------------------------|
|---------------------------------|---------------------------------|
|-----------------------5---------|-------------------------5-------|
|-5h7-x-x-5h7-x-x-5h7-x-------7---|-5h7-x-x-5h7-x-x-2-------5-------|
|-0---x-x-----x-x-----x-----------|-0---x-x-----x-x-0-------3-------|
	

Chorus
~~~~~~
 "...eat you up, she will..."
|---------------------------------|---------------------------------|
|---------------------------------|---------------------------------|
|---------------------------------|---------------------------------|
|-7---7---5---7-------3---3-------|-5---5---3---5-------3---3-------|
|-7---7---5---7-------3---3-------|-5---5---3---5-------3---3-------|
|-5---5---3---5-------1---1-------|-3---3---1---3-------1---1-------|

"she hurts so bad in a good way..."
|---------------------------------|---------------------------------|
|---------------------------------|---------------------------------|
|---------------------------------|---------------------------------|
|---------------------------------|-------------------------5-------|
|---------------------------------|-3-------3-------2-------5-------|
|-3---3-3-3---3-3-3---3-3-3---3-3-|-1---1-1-1---1-1-0-------3-------|
  .   . . .   . . .   . . .   . .       . .     . . 

Play x2

Back to Intro/"Pyromite" riff. Play it with this variation if you like:

              "Py -   ro  mite..."             "Py -   ro  mite..."
|---------------------------------|---------------------0-----------|
|-------------3-------3---1-------|-------------3-------0---1-------|
|-2-----------2-------2---2-------|-2-----------2-------2---2-------|
|-2---2-2-2---x-------x---x---2-2-|-2---2-2-2---x-----------x---2-2-|
|-0---0-0-0---0-------0---0---0-0-|-0---0-0-0---0-----------0---0-0-|
|---------------------------------|---------------------------------|
      . . .                   . .       . . .                   . .

|---------------------------------|---------------------------------|
|---------------------------------|---------------------------------|
|---------------------------------|---------------------------------|
|---------------------------------|---------------------------------|
|-------------------------3-------|-----2---------------------------|
|-1-----------0-------------------|-----------------4-----------0---|

Then back to Verse, Pre-Chorus, Chorus, Intro/"Pyromite" Riff, then:


Interlude
~~~~~~~~~

|-----------------|-----------------|-----------------|-----------------|
|-----------------|-----------------|-----------------|-----------------|
|-----------------|-----------------|-----------------|-----------------|
|-2---------------|-2---------------|-----------------|-----------------|
|-0---3-2---0-3---|-0---3-2---0-3---|-5---2-0-----2---|-5---2-0---------|
|-----------------|-----------------|-3---------3-----|-3---------3-4---|


|-----------------|-----------------|-----------------|-----------------|
|-----------------|-----------------|-----------------|-----------------|
|-----------------|-----------------|-----------------|-----------------| Guitar 2
|----2-0------2---|-----2-0-----2---|-----------------|-----------------|
|-3---------3-----|-3---------3-----|-2---5-3---2-5---|-2---5-3---2-3---|
|-----------------|-----------------|-----------------|-----------------|
|                 |                 |                 |                 |
|-----------------|-----------------|-----------------|-----------------|
|-----------------|-----------------|-----------------|-----------------|
|-----------------|-----------------|-----------------|-----------------| Guitar 1
|-2---------------|-2---------------|-----------------|-----------------|
|-0---3-2---0-3---|-0---3-2---0-3---|-5---2-0-----2---|-5---2-0---------|
|-----------------|-----------------|-3---------3-----|-3---------3-4---|

    "trapped in the shadows..."
|-----------------|-----------------|-----------------|-----------------|
|-----------------|-----------------|-----------------|-----------------|
|-----------------|-----------------|-2---------------|-----------------|
|-3---------------|-------------5---|-2---------------|-----------------|
|-3---------------|-------------5---|-0---------------|--------------5--|
|-1---------------|-------------3---|-----------------|--------------3--|

                                  "but she keeps on pushing..."
|-----------------|-----------------|-----------------|-----------------|
|-----------------|-----------------|-----------------|-----------------|
|-----------------|-----------------|-----------------|-----------------|
|-3---------------|-----------------|-----------------|-----------------|
|-3--------whammy bar up------------|-2---2---2-2---3-|---3---3-5-5---5-|
|-1---------------|-----------------|-0-0-0-0-0-0-0-1-|-1-1-1-1-3-3-3-3-|
                                        .   .     .     .   .       .

Solo (only bass intro riff underneath until pre-chorus comes in)
~~~~
     delay/tremolo/channel switching effect       effect off
|------------------------------------------------------------------|
|------------------------------------------------------------------|
|-7b9------------------------------0--------------2----------------|
|----------------------------------0--------------2----------------|
|------------------------------------------------------------------|
|------------------------------------------------------------------|


|------------------------------------------------------------------|
|-15b17---15b17--15b17r15-13-------15b17---15b17r15-13----13~~~----|
|----------------------------14------------------------14----------|
|------------------------------------------------------------------|
|------------------------------------------------------------------|
|------------------------------------------------------------------|


|--------------------------------|
|--15b17---15b17--15b17r15-13----|
|-----------------------------14-|
|--------------------------------|
|--------------------------------|
|--------------------------------|


|-------12-13-------15-13-------12--------------|
|-10h12-------10h12-------10h12----12-10h12-----|
|-----------------------------------------------|
|-----------------------------------------------|
|-----------------------------------------------|
|-----------------------------------------------|
|                                               |
|-----------------------------------------------|
|-----------------------------------------------|
|-----------------------------------------------| Guitar 2 comes in
|---------------------------------------5-------| with last bit of
|-5h7--x---x---5h7--x--x---5h7---x--x-------7---| pre-chorus
|-0----x---x--------x--x---------x--x-----------|
	

|-15-14-12--------------------------|-------------------|
|----------15-13-12-10------12------|-13----------------|
|-------------------12b14---14b16---|-15b17~~~~~--------|
|-----------------------------------|-------------------|
|-----------------------------------|-------------------|
|-----------------------------------|-------------------|
|                                   |
|-----------------------------------|
|-----------------------------------|
|-----------------------------------| Back to Chorus
|-----------------------------------|
|-5h7--x-x-5h7--x-x-2-------5-------|
|-0----x-x------x-x-0-------3-------|


Then it's the Intro/"Pyromite" riff a bunch of times with some
crazy sound effects in the background, until...


Finale
~~~~~~
              "Py -   ro  mite..."             "Py -   ro  mite..."
|---------------------------------|---------------------0-----------|
|-------------3-------3---1-------|-------------3-------0---1-------|
|-2-----------2-------2---2-------|-2-----------2-------2---2-------|
|-2---2-2-2---x-------x---x---2-2-|-2---2-2-2---x-----------x---2-2-|
|-0---0-0-0---0-------0---0---0-0-|-0---0-0-0---0-----------0---0-0-|
|---------------------------------|---------------------------------|
      . . .                   . .       . . .                   . .

|---------------------------------|---------------------------------|
|-------------------------13------|-----12----------9---------------|
|-10----------9-------------------|-----------------------------9---| Guitar 2
|---------------------------------|---------------------------------|
|---------------------------------|---------------------------------|
|---------------------------------|---------------------------------|
|                                 |                                 |
|---------------------------------|---------------------------------|
|---------------------------------|---------------------------------|
|---------------------------------|---------------------------------| Guitar 1
|---------------------------------|---------------------------------|
|-------------------------3-------|-----2---------------------------|
|-1-----------0-------------------|-----------------4-----------0---|


|---------------------------------|
|-10~~~~~~~~----------------------|
|---------------------------------|
|---------------------------------|
|---------------------------------|
|---------------------------------|
|                                 |
|---------------------------------|
|---------------------------------|
|-2-------------------------------|
|-2-------------------------------|
|-0-------------------------------|
|---------------------------------|


End!
Добавлено: 10.03.2012
Другие материалы по этой песне:
  • Аккорды и текст

Страница создана 10.03.2012
http://primanota.ru/lordi/pyromite-chords.htm
Привет, Гость.
Предлагаем пройти революционный курс по гитаре.
Подарок от PrimaNota.Ru, забирай!