PrimaNota.ru - самый крупный в мире бесплатный архив песенных текстов, аккордов, табулатур и нот


Lordi - Midnite Lover - текст песни, таба, видео

Регистрация Запомнить меня
Войти через:  Facebook Google Twitter Vk Yandex Mail.ru

Lordi - Midnite Lover - текст песни, таба, видео

Печатать
Просмотров: 196
Уроки эстрадного вокала в Санкт-Петербурге
Авторы: Ox, Awa, Tracy Lipp, Mr. Lordi, Amen, Kita

-----------------------------------------------------------------------------
--
                         Midnite Lover
                             Lordi
                       Babez For Breakfast
-------------------------------------------------------------------------------
Tabbed by: Chint
Email: lordifan1994@gmx.de

Tuning: Drop D

************************************

| /   slide up
| \   slide down
| h   hammer-on
| p   pull-off
| ~   vibrato
| +   harmonic
| x   Mute note
| b   Bend
| pb  Pre-bend
| br  Bend release
| pbr Pre-bend release
| brb Bend release bend

************************************

Intro:

e|-------------------------|
B|-------------------------|
G|-6--6--6--6--6--6--6--6--|
D|-------------------------|
A|-------------------------|
D|-------------------------|x6


Intro 2:
(a)
e|--------------------------------------------------------------------------|
B|--------------------------------------------------------------------------|
G|-6----6----6--6--6--6----6----6--6--6--4----2-----------------------------|
D|-6----6----6--6--6--6----6----6--6--6--4----2-----2----4--4--2--4--5--4--2|
A|-4----4----4--4--4--4----4----4--4--4--2----0-----2----4--4--2--4--5--4--2|
D|--------------------------------------------------2----4--4--2--4--5--4--2|
             x     x            x     x                  x  x  x
(b)
e|--------------------------------------------------------------------------|
B|--------------------------------------------------------------------------|
G|-6----6----6--6--6--6----6----6--6--6--4----2-------------------5--4------|
D|-6----6----6--6--6--6----6----6--6--6--4----2-----2----4--4--2--5--4--5---|
A|-4----4----4--4--4--4----4----4--4--4--2----0-----2----4--4--2--3--2--5---|
D|--------------------------------------------------2----4--4--2--------5---|
             x     x            x     x                  x  x  x

Verse:
(I trust my gut real good...)
e|---------------------------------------------------------|
B|---------------------------------------------------------|
G|-2--2-----------------------7--7--7-7-7-7--7--7--7-7-7-7-|
D|-2--2-----2--2-----5--5-----7--7--7-7-7-7--7--7--7-7-7-7-|
A|-0--0-----2--2-----5--5-----5--5--5-5-5-5--7--7--7-7-7-7-|
D|----------2--2-----5--5----------------------------------|
                                    x x x x        x x x x

e|---------------------------------------------------------|
B|---------------------------------------------------------|
G|-2--2-----------------------7--7--7-7-7-7--7--7--7-7-7-7-|
D|-2--2-----2--2-----5--5-----7--7--7-7-7-7--7--7--7-7-7-7-|
A|-0--0-----2--2-----5--5-----5--5--5-5-5-5--7--7--7-7-7-7-|
D|----------2--2-----5--5----------------------------------|
                                    x x x x        x x x x

Pre Chorus:
(I met your darling,...)
e|--------------------------------------------------|
B|--------------------------------------------------|
G|-5------------------------------------------------|
D|-5-----3---5------7-7-7-7-5-5-5-5-3-3-3-3-3-5-5-7-|
A|-3-----3---5------7-7-7-7-5-5-5-5-3-3-3-3-3-5-5-7-|
D|-------3---5------7-7-7-7-5-5-5-5-3-3-3-3-3-5-5-7-|
                    x x x x x x x x x x x x x
                                                 (Brigde)
e|--------------------------------------------------|-----------------|
B|--------------------------------------------------|-----------------|
G|-5------------------------------------------------|-7h9----7h9----9-|
D|-5-----3---5------7-7-7-7-5-5-5-5-3-3-3-3-3-3-3-3-|-7h9----7h9----9-|
A|-3-----3---5------7-7-7-7-5-5-5-5-3-3-3-3-3-3-3-3-|-5h7----5h7----7-|
D|-------3---5------7-7-7-7-5-5-5-5-3-3-3-3-3-3-3-3-|-----------------|
                    x x x x x x x x x x x x x x x x

Chorus:
(Oh, I know you're waiting for your midnite lover...)
e|------------------------------------------------|
B|------------------------------------------------|
G|------------------------------------------------|
D|-7----3----5----7----0----2----3---5--7----2--5-|
A|-7----3----5----7----0----2----3---5--7----2--5-|
D|-7----3----5----7----0----2----3---5--7----2--5-|


e|------------------------------------------------|
B|------------------------------------------------|
G|----------------------------------------------5-|
D|-7----3----5----7----0----2----3---5--7----2--5-|
A|-7----3----5----7----0----2----3---5--7----2--3-|
D|-7----3----5----7----0----2----3---5--7----2----|

Intro 2(b):

e|--------------------------------------------------------------------------|
B|--------------------------------------------------------------------------|
G|-6----6----6--6--6--6----6----6--6--6--4----2-------------------5--4------|
D|-6----6----6--6--6--6----6----6--6--6--4----2-----2----4--4--2--5--4--5---|
A|-4----4----4--4--4--4----4----4--4--4--2----0-----2----4--4--2--3--2--5---|
D|--------------------------------------------------2----4--4--2--------5---|
             x     x            x     x                  x  x  x


Verse:
(I'm stalking like a pro,...)
e|---------------------------------------------------------|
B|---------------------------------------------------------|
G|-2--2-----------------------7--7--7-7-7-7--7--7--7-7-7-7-|
D|-2--2-----2--2-----5--5-----7--7--7-7-7-7--7--7--7-7-7-7-|
A|-0--0-----2--2-----5--5-----5--5--5-5-5-5--7--7--7-7-7-7-|
D|----------2--2-----5--5----------------------------------|
                                    x x x x        x x x x

e|---------------------------------------------------------|
B|---------------------------------------------------------|
G|-2--2-----------------------7--7--7-7-7-7--7--7--7-7-7-7-|
D|-2--2-----2--2-----5--5-----7--7--7-7-7-7--7--7--7-7-7-7-|
A|-0--0-----2--2-----5--5-----5--5--5-5-5-5--7--7--7-7-7-7-|
D|----------2--2-----5--5----------------------------------|
                                    x x x x        x x x x


Pre Chorus:
(I met your darling,...)
e|--------------------------------------------------|
B|--------------------------------------------------|
G|-5------------------------------------------------|
D|-5-----3---5------7-7-7-7-5-5-5-5-3-3-3-3-3-5-5-7-|
A|-3-----3---5------7-7-7-7-5-5-5-5-3-3-3-3-3-5-5-7-|
D|-------3---5------7-7-7-7-5-5-5-5-3-3-3-3-3-5-5-7-|
                    x x x x x x x x x x x x x
                                                 (Brigde)
e|--------------------------------------------------|-----------------|
B|--------------------------------------------------|-----------------|
G|-5------------------------------------------------|-7h9----7h9----9-|
D|-5-----3---5------7-7-7-7-5-5-5-5-3-3-3-3-3-3-3-3-|-7h9----7h9----9-|
A|-3-----3---5------7-7-7-7-5-5-5-5-3-3-3-3-3-3-3-3-|-5h7----5h7----7-|
D|-------3---5------7-7-7-7-5-5-5-5-3-3-3-3-3-3-3-3-|-----------------|
                    x x x x x x x x x x x x x x x x


Chorus:
(Oh, I know you're waiting for your midnite lover...)
e|------------------------------------------------|
B|------------------------------------------------|
G|------------------------------------------------|
D|-7----3----5----7----0----2----3---5--7----2--5-|
A|-7----3----5----7----0----2----3---5--7----2--5-|
D|-7----3----5----7----0----2----3---5--7----2--5-|


e|------------------------------------------------|
B|------------------------------------------------|
G|----------------------------------------------5-|
D|-7----3----5----7----0----2----3---5--7----2--5-|
A|-7----3----5----7----0----2----3---5--7----2--3-|
D|-7----3----5----7----0----2----3---5--7----2----|


Verse 2:
(Don't you know me?...)
e|-----------------------------------------------------|
B|-----------------------------------------------------|
G|-6--6--6-----8--8--8-----9--9--9-----11--11--11------|
D|-6--6--6-----8--8--8-----9--9--9-----11--11--11------|
A|-4--4--4-----6--6--6-----7--7--7-----9---9---9-------|
D|-----------------------------------------------------|



e|--------------------------------------------------------------------|
B|--------------------------------------------------------------------|
G|-6--6--6-----8--8--8-----9--9--9-----11--11--11--11--11--11--11--11-|
D|-6--6--6-----8--8--8-----9--9--9-----11--11--11--11--11--11--11--11-|
A|-4--4--4-----6--6--6-----7--7--7-----9---9---9---9---9---9---9---9--|
D|--------------------------------------------------------------------|


Solo 1(while keyboard solo):


e|------------------------------------------------------------------------|
B|------------------------------------------------------------------------|
G|-4---4------4---4--5---5------5---5--6---6------6---6--5---5------5---5-|
D|-4---4------4---4--5---5------5---5--6---6------6---6--5---5------5---5-|
A|-2---2------2---2--3---3------3---3--4---4------4---4--3---3------3---3-|
D|------------------------------------------------------------------------|


e|------------------------------------------------------------------------|
B|------------------------------------------------------------------------|
G|-4---4------4---4--5---5------5---5--6---6------6---6--5---5------5---5-|
D|-4---4------4---4--5---5------5---5--6---6------6---6--5---5------5---5-|
A|-2---2------2---2--3---3------3---3--4---4------4---4--3---3------3---3-|
D|------------------------------------------------------------------------|


Solo 2(now guitar solo):

e|---------------------------------------------------------------------------|
B|---------------------------------------------------------------------------|
G|----------------------------------------------------11--13----11-----------|
D|10h11--14--14--11--13------11----14--14--11--13--14------------------------|
A|------------------------14----------------------------------------12-------|
D|---------------------------------------------------------------------------|


e|---------------------------------------------------------------------------|
B|--------------------------------12--14--17p14-------------14--14----17p14--|
G|----------------------------------------------16p14--16--------------------|
D|-10h11--13--13--11--14--14--13---------------------------------------------|
A|---------------------------------------------------------------------------|
D|---------------------------------------------------------------------------|


e|--------------------16-p-14-h-16-p-14--------------------------------------|
B|--------14--16--17----------------------------14-12-14-16-14-16-17-16-17---|
G|-16p14---------------------------------16----------------------------------|
D|---------------------------------------------------------------------------|
A|---------------------------------------------------------------------------|
D|---------------------------------------------------------------------------|


e|-19-16-19-21~~~-|
B|----------------|
G|----------------|
D|----------------|
A|----------------|
D|----------------|


Chorus:
(Oh, I know you're waiting for your midnite lover...)
e|------------------------------------------------|
B|------------------------------------------------|
G|------------------------------------------------|
D|-7----3----5----7----0----2----3---5--7----2--5-|
A|-7----3----5----7----0----2----3---5--7----2--5-|
D|-7----3----5----7----0----2----3---5--7----2--5-|


e|------------------------------------------------|
B|------------------------------------------------|
G|------------------------------------------------|
D|-7----3----5----7----0----2----3---5--7----2--5-|
A|-7----3----5----7----0----2----3---5--7----2--5-|
D|-7----3----5----7----0----2----3---5--7----2--5-|


e|------------------------------------------------|
B|------------------------------------------------|
G|------------------------------------------------|
D|-7----3----5----7----0----2----3---5--7----2--5-|
A|-7----3----5----7----0----2----3---5--7----2--5-|
D|-7----3----5----7----0----2----3---5--7----2--5-|


e|------------------------------------------|
B|------------------------------------------|
G|------------------------------------------|
D|-7----3----5----7----0----2--2--3---5--7\-|
A|-7----3----5----7----0----2--2--3---5--7\-|
D|-7----3----5----7----0----2--2--3---5--7\-|

If there're any questions, send an e-mail: lordifan1994@gmx.de
Добавлено: 31.05.2012
Другие материалы по этой песне:
  • Аккорды и текст

Страница создана 31.05.2012
http://primanota.ru/lordi/midnite-lover-chords.htm
Привет, Гость.
Предлагаем пройти революционный курс по гитаре.
Подарок от PrimaNota.Ru, забирай!